Monsoon, Tokio Hotel (tablatura) (ver 8)

Autor: diegojuan | 40067 visualizaciones

aqui les dejo una tablatura completa del grupo musical tokio hotel,cualquier sugerencia al correo diegodef@live.com

verso:

1---------------------------------------------
2------------------------------------------------
3------------------------------------------------
4--5--5--5--6--6--6--5--5--1--1--1--2--2--2--1--1---X 5
5--6--6--6--6--6--6--6--6--2--2--2--2--2--2--2--2---
6------------------------------------------------
ESTO ES AL FINAL DE CADA VERSO:
1--4-------
2--4-------
3--4-------
4--46------X6
5--46------
6--4-------

1------------
2-----------
3------------
4------------
5--1-1-1-1-1-1
6--2-2-2-2-2-2

1---------------------------------------------
2------------------------------------------------
3------------------------------------------------
4--5--5--5--6--6--6--5--5--1--1--1--2--2--2--1--1---X 5
5--6--6--6--6--6--6--6--6--2--2--2--2--2--2--2--2---
6------------------------------------------------

1--4-------
2--4-------
3--4-------
4--46------X6
5--46------
6--4-------

1--4-------
2--4-------
3--4-------
4--46------X6
5--44------
6--4-------
CORO:

1--2-2-2--1-1-1--2-2-2--1-1-1
2---4-4-4--2-2-2--4-4-4--2-2-2
3----4-4----1-1----3-3----3-3
4---------------------------
5---------------------------
6---------------------------

1--2-2-2--1-1-1--1-1-1--2-2-2--2-2-2--1--11-13-11---11-13-11
2---4-4-4--2-2-2--2-2-2--4-4-4--4-4-4-2-----------12---------12
3----4-4----1-1----3-3----3-3----4-4--1------------------------
4--------------------------------------------------------------
5---------------------------------------------------------------
6---------------------------------------------------------------
verso:
1---------------------------------------------
2------------------------------------------------
3------------------------------------------------
4--5--5--5--6--6--6--5--5--1--1--1--2--2--2--1--1---X 5
5--6--6--6--6--6--6--6--6--2--2--2--2--2--2--2--2---
6------------------------------------------------
ESTO ES AL FINAL DE CADA VERSO:
1--4-------
2--4-------
3--4-------
4--46------X6
5--46------
6--4-------

1------------
2-----------
3------------
4------------
5--1-1-1-1-1-1
6--2-2-2-2-2-2

1----------------------------------------------------------------
*4-4-4-4-4-4-4-4-4-4-4-4-4-4-4-4-66-4-4-4-4-4-4-4-2-2-2-2-1-1-1-1
3----------------------------------------------------------------
4-----------------------------------------------------------
5----------------------------------------------------------------
6---------------------------------------------------------------
coro:
1--2-2-2--1-1-1--2-2-2--1-1-1
2---4-4-4--2-2-2--4-4-4--2-2-2
3----4-4----1-1----3-3----3-3
4---------------------------
5---------------------------
6---------------------------

1--2-2-2--1-1-1--1-1-1--2-2-2--2-2-2--1--
2---4-4-4--2-2-2--2-2-2--4-4-4--4-4-4-2--
3----4-4----1-1----3-3----3-3----4-4--1--    x2
4----------------------------------------------
5-------------------------------------------------
6------------------------------------------------

1--------------------------------------------
2-------------------------------------------------
3------------------------------------------------------
4--6-6-6-5-5-5-5-2-2-2-1-1-1-1
5--6-6-6-6-6-6-6-2-2-2-2-2-2-2         X6
6---------------------------------------------------------

1--2---1---2---1-2    -2
2--4---2---4---2-4  X3-4
3--4---1---3---3-4    -4
4---------------------------
5---------------------------
6---------------------------
ESTO VA RASGADO YA NO VA ARPEGEADO:
1--2-2-2--1-1-1--2-2-2--1-1-1
2---4-4-4--2-2-2--4-4-4--2-2-2
3----4-4----1-1----3-3----3-3
4---------------------------
5---------------------------
6---------------------------

1--2-2-2--1-1-1--1-1-1--2-2-2--2-2-2--1--
2---4-4-4--2-2-2--2-2-2--4-4-4--4-4-4-2--
3----4-4----1-1----3-3----3-3----4-4--1--    x2
4----------------------------------------------
5-------------------------------------------------
6------------------------------------------------


1---------------------------------------------
2------------------------------------------------
3------------------------------------------------
4--5--5--5--6--6--6--5--5--1--1--1--2--2--2--1--1---X 3
5--6--6--6--6--6--6--6--6--2--2--2--2--2--2--2--2---
6------------------------------------------------
Calificar esta versión:
Aviso: Este fichero es trabajo propio de su transcriptor y representa su interpretación personal de la canción. El material contenido en esta página es para exclusivo uso privado, por lo que se prohibe su reproducción o retransmisión, así como su uso para fines comerciales.
Más versiones de Monsoon, Tokio Hotel
Monsoon
acordes
Monsoon (ver 2)
acordes
Monsoon (ver 3)
acordes
Monsoon (ver 4)
acordes
Monsoon (ver 5)
acordes
Monsoon (ver 6)
acordes
Monsoon
tablatura
Monsoon (ver 2)
tablatura
Monsoon (ver 3)
tablatura
Monsoon (ver 4)
tablatura
Monsoon (ver 5)
tablatura
Monsoon (ver 6)
tablatura
Monsoon (ver 7)
tablatura
Monsoon (ver 8)
tablatura
Monsoon
bajo
Descubre más canciones de Tokio Hotel