Monsoon, Tokio Hotel (tablatura) (ver 2)

Autor: JMelchor | 17357 visualizaciones

Hola, mi nombre en Juan Mario, soy de Colombia y soy el nuevo en esta página. Decidí primero poner esta tablatura de Tokio Hotel ya que los acordes que había encontrado de Monsoon en Internet no eran los correctos. Así que me dedique a sacarla poco a poco y me salió igual a la original. Descubrí que la canción está en C# y no en C. Hice esta tablatura para que les suene como la verdadera canción y les quede un poco más fácil. Pronto mostraré Ready, set, go y otras canciones que tengo. Bueno, aquí les dejo este buen tema, alguna duda a mi correo jotamelchor@hotmail.com.


“Monsoon” – Tokio Hotel


A) Intro 

e|------------------------------|
B|------------------------------|
G|------------------------------| 
D|-5-5-5-6-6-6-5--1-1-1-2-2-2-1-| (Repite)
A|-6-6-6-6-6-6-6--2-2-2-2-2-2-2-|
E|------------------------------|


B) Verso 1

e|------------------------------|
B|------------------------------|
G|------------------------------| 
D|-5-5-5-6-6-6-5--1-1-1-2-2-2-1-| (3 veces)
A|-6-6-6-6-6-6-6--2-2-2-2-2-2-2-|
E|------------------------------|

e|------------------------------| 
B|------------------------------| 
G|------------------------------| 
D|------------------------------| 
A|-6-6-6-6-6-6-6--4-4-4-4-4-4-4-|
E|-4-4-4-4-4-4-4--2-2-2-2-2-2-2-|



C) Verso 2 

e|------------------------------| 
B|------------------------------| 
G|------------------------------| 
D|-5-5-5-6-6-6-5--1-1-1-2-2-2-1-| (3 veces)
A|-6-6-6-6-6-6-6--2-2-2-2-2-2-2-|
E|------------------------------|

e|------------------------------| 
B|------------------------------| 
G|-6-6-6-6-6-6-6--5-5-5-5-5-5-5-| 
D|-6-6-6-6-6-6-6--6-6-6-6-6-6-6-| 
A|-6-6-6-6-6-6-6--6-6-6-6-6-6-6-|
E|------------------------------|



D) Primer Coro 

e|--------------------------------| 
B|-4-4-4-4-4-4-4----6-6-6-6-6-6-6-| 
G|-4-4-4-4-4-4-4----6-6-6-6-6-6-6-| 
D|-4-4-4-4-4-4-4----6-6-6-6-6-6-6-| 
A|-2-2-2-2-2-2-2----4-4-4-4-4-4-4-|
E|--------------------------------|

e|--------------------------------| 
B|-7-7-7-7-7-7-7----2-2-2-2-2-2-2-| 
G|-8-8-8-8-8-8-8----3-3-3-3-3-3-3-| 
D|-8-8-8-8-8-8-8----3-3-3-3-3-3-3-| 
A|-6-6-6-6-6-6-6----1-1-1-1-1-1-1-|
E|--------------------------------|

e|--------------------------------| 
B|-4-4-4-4-4-4-4----6-6-6-6-6-6-6-| 
G|-4-4-4-4-4-4-4----6-6-6-6-6-6-6-| 
D|-4-4-4-4-4-4-4----6-6-6-6-6-6-6-| 
A|-2-2-2-2-2-2-2----4-4-4-4-4-4-4-|
E|--------------------------------|

e|--------------------------------| 
B|-2-2-2-2-2-2-2----7-7-7-7-7-7-7-| 
G|-3-3-3-3-3-3-3----8-8-8-8-8-8-8-| 
D|-3-3-3-3-3-3-3----8-8-8-8-8-8-8-| 
A|-1-1-1-1-1-1-1----6-6-6-6-6-6-6-|
E|--------------------------------|

e|--------------------------------| 
B|-4-4-4-4-4-4-4----6-6-6-6-6-6-6-| 
G|-4-4-4-4-4-4-4----6-6-6-6-6-6-6-| 
D|-4-4-4-4-4-4-4----6-6-6-6-6-6-6-| 
A|-2-2-2-2-2-2-2----4-4-4-4-4-4-4-|
E|--------------------------------|


A) Intermedio

e|------------------------------|
B|------------------------------|
G|------------------------------| 
D|-5-5-5-6-6-6-5--1-1-1-2-2-2-1-| 
A|-6-6-6-6-6-6-6--2-2-2-2-2-2-2-|
E|------------------------------|

e|------------------------------|
B|------------------------------|
G|------------------------------| 
D|-5-5-5-6-6-6-5--1-1-1-2-2-2-1-| 
A|-6-6-6-6-6-6-6--2-2-2-2-2-2-2-|
E|------------------------------|


B) Verso 3 igual al verso 1


C) Verso 4 igual al verso 2


D) Segundo Coro 

e|--------------------------------| 
B|-4-4-4-4-4-4-4----6-6-6-6-6-6-6-| 
G|-4-4-4-4-4-4-4----6-6-6-6-6-6-6-| 
D|-4-4-4-4-4-4-4----6-6-6-6-6-6-6-| 
A|-2-2-2-2-2-2-2----4-4-4-4-4-4-4-|
E|--------------------------------|

e|--------------------------------| 
B|-7-7-7-7-7-7-7----2-2-2-2-2-2-2-| 
G|-8-8-8-8-8-8-8----3-3-3-3-3-3-3-| 
D|-8-8-8-8-8-8-8----3-3-3-3-3-3-3-| 
A|-6-6-6-6-6-6-6----1-1-1-1-1-1-1-|
E|--------------------------------|

e|--------------------------------| 
B|-4-4-4-4-4-4-4----6-6-6-6-6-6-6-| 
G|-4-4-4-4-4-4-4----6-6-6-6-6-6-6-| 
D|-4-4-4-4-4-4-4----6-6-6-6-6-6-6-| 
A|-2-2-2-2-2-2-2----4-4-4-4-4-4-4-|
E|--------------------------------|

e|--------------------------------| 
B|-2-2-2-2-2-2-2----7-7-7-7-7-7-7-| 
G|-3-3-3-3-3-3-3----8-8-8-8-8-8-8-| 
D|-3-3-3-3-3-3-3----8-8-8-8-8-8-8-| 
A|-1-1-1-1-1-1-1----6-6-6-6-6-6-6-|
E|--------------------------------|

e|--------------------------------| 
B|-4-4-4-4-4-4-4----6-6-6-6-6-6-6-| 
G|-4-4-4-4-4-4-4----6-6-6-6-6-6-6-| 
D|-4-4-4-4-4-4-4----6-6-6-6-6-6-6-| 
A|-2-2-2-2-2-2-2----4-4-4-4-4-4-4-|
E|--------------------------------|

e|--------------------------------| 
B|-7-7-7-7-7-7-7----2-2-2-2-2-2-2-| 
G|-8-8-8-8-8-8-8----3-3-3-3-3-3-3-| 
D|-8-8-8-8-8-8-8----3-3-3-3-3-3-3-| 
A|-6-6-6-6-6-6-6----1-1-1-1-1-1-1-|
E|--------------------------------|

e|--------------------------------| 
B|-4-4-4-4-4-4-4----6-6-6-6-6-6-6-| 
G|-4-4-4-4-4-4-4----6-6-6-6-6-6-6-| 
D|-4-4-4-4-4-4-4----6-6-6-6-6-6-6-| 
A|-2-2-2-2-2-2-2----4-4-4-4-4-4-4-|
E|--------------------------------|


E) Puente

e|------------------------------|
B|------------------------------|
G|------------------------------|
D|-6-6-6-5-5-5-5--2-2-2-1-1-1-1-| (5 veces)
A|-6-6-6-6-6-6-6--2-2-2-2-2-2-2-|
E|------------------------------|

e|--------------------------------|
B|--------------------------------|
G|--------------------------------|
D|-6-6-6-5-5-5-5--2-2-2-2-2-2-2-1-| 
A|-6-6-6-6-6-6-6--2-2-2-2-2-2-2-2-|
E|--------------------------------|

e|------------------------------| 
B|------------------------------|
G|------------------------------|
D|-5-5-5-6-5-5-1--5-5-5-6-5-5-1-| (Repite)
A|-6-6-6-6-6-6-2--6-6-6-6-6-6-2-|
E|------------------------------|


F) Tercer coro igual al segundo coro


E) Final

e|------------------------------|
B|------------------------------|
G|------------------------------| 
D|-5-5-5-6-6-6-5--1-1-1-2-2-2-1-| (3 veces)
A|-6-6-6-6-6-6-6--2-2-2-2-2-2-2-|
E|------------------------------|

e|------------------------------|
B|------------------------------|
G|------------------------------|
D|-5-5-5-6-6-6-5-----11--1--11--| 
A|-6-6-6-6-6-6-6-----22--2--22--|
E|------------------------------|

Calificar esta versión:
Aviso: Este fichero es trabajo propio de su transcriptor y representa su interpretación personal de la canción. El material contenido en esta página es para exclusivo uso privado, por lo que se prohibe su reproducción o retransmisión, así como su uso para fines comerciales.
Más versiones de Monsoon, Tokio Hotel
Monsoon
acordes
Monsoon (ver 2)
acordes
Monsoon (ver 3)
acordes
Monsoon (ver 4)
acordes
Monsoon (ver 5)
acordes
Monsoon (ver 6)
acordes
Monsoon
tablatura
Monsoon (ver 2)
tablatura
Monsoon (ver 3)
tablatura
Monsoon (ver 4)
tablatura
Monsoon (ver 5)
tablatura
Monsoon (ver 6)
tablatura
Monsoon (ver 7)
tablatura
Monsoon (ver 8)
tablatura
Monsoon
bajo
Descubre más canciones de Tokio Hotel