Monsoon, Tokio Hotel (bajo)

Autor: angel_pitagoras | 20459 visualizaciones

Afinación estándar: mí, la, re y sol.

Intro:
E|-12/5---------
A|--------------
D|--------------		
G|--------------

E|--0-0-0-12-12-12-0-0-8-8-8-9-9-9-8-8-  
A|-------------------------------------  
D|------------------------------------- (x 2)	  		
G|-------------------------------------


I'm staring at a…
E|-0-0-0-12-12-12-0-0-8-8-8-9-9-9-8-8-
A|------------------------------------
D|------------------------------------ (x 3)	  		
G|------------------------------------

Me insane…
E|-6-66-66-5-55-55--
A|------------------
D|------------------	  		
G|------------------

I've been waiting…
E|-0-0-0-12-12-12-0-0-8-8-8-9-9-9-8-8-
A|------------------------------------
D|------------------------------------ (x 3)	  		
G|------------------------------------

Coming up again…
E|-5-55-55-3-33-33--
A|------------------
D|------------------	  		
G|------------------


Running through the monsoon…
E|-88888888-1010101010101010-1212121212121212-77777777-
A|-----------------------------------------------------
D|----------------------------------------------------- (x 2)
G|-----------------------------------------------------

Be running somewhere…
E|-88888888-10~-------
A|-------------------
D|-------------------
G|-------------------

Monsoon just me and you…
E|-0-0-0-12-12-12-0-0-8-8-8-9-9-9-8-8-
A|------------------------------------
D|------------------------------------ (x 5)	  		
G|------------------------------------

Me so alone…
E|-6-66-66-5-55-55--
A|------------------
D|------------------	  		
G|------------------

I know I have…
E|-0-0-0-12-12-12-0-0-8-8-8-9-9-9-8-8-
A|------------------------------------
D|------------------------------------ (x 3)	  		
G|------------------------------------

Feel like home?
E|-5-55-55-3-33-33--
A|------------------
D|------------------	  		
G|------------------


Running through the monsoon…
E|-88888888-1010101010101010-1212121212121212-77777777-
A|-----------------------------------------------------
D|----------------------------------------------------- (x 3)
G|-----------------------------------------------------

E|-88888888-1010101010101010--
A|----------------------------
D|----------------------------
G|----------------------------

Hey! Hey! ...
E|-0-0-0-12-12-12-0-0-8-8-8-9-9-9-8-8-
A|------------------------------------ (x 5)
D|------------------------------------   	  		
G|------------------------------------

E|-0-0-0-12-12-12-0-0-8-8-8-9-9-9-8-8-9-
A|-------------------------------------- 
D|--------------------------------------  	  		
G|--------------------------------------

We'll be there soon…
E|-8--10--12--0~-10~-
A|-------------------
D|------------------- 		
G|-------------------


Running through the monsoon…
E|-88888888-1010101010101010-1212121212121212-77777777-
A|-----------------------------------------------------
D|----------------------------------------------------- (x 3)
G|-----------------------------------------------------

E|-88888888-1010101010101010--
A|----------------------------
D|----------------------------
G|----------------------------

FIN:Through the monsoon
E|-0-0-0-12-12-12-0-0-8-8-8-9-9-9-8-8-  (x 3)
A|------------------------------------   
D|------------------------------------	   		
G|------------------------------------

E|-0-0-0-12-12-12-0-0-11-11-11-12-12-12-11~-
A|------------------------------------------   
D|------------------------------------------	   		
G|------------------------------------------

Comentarios del colaborador: xXxXx bueno pzz aki les dejo mi primer tab para bajo, espero que la cancion este correcta y que les guste mucho, si ustedes nitan algun error y kieren hacerle un arreglo usen su imaginacion y creatividad para ponerselo y esta cancion esta dedicada para mi novia mago y para mi hermana eva que es toda una loka fanatica de tokio hotel, para dudas, criticas o aclaraciones mi mail es angel_pitagoras@hotmail.com y aio zxXxXx

Calificar esta versión:
Aviso: Este fichero es trabajo propio de su transcriptor y representa su interpretación personal de la canción. El material contenido en esta página es para exclusivo uso privado, por lo que se prohibe su reproducción o retransmisión, así como su uso para fines comerciales.
Más versiones de Monsoon, Tokio Hotel
Monsoon
acordes
Monsoon (ver 2)
acordes
Monsoon (ver 3)
acordes
Monsoon (ver 4)
acordes
Monsoon (ver 5)
acordes
Monsoon (ver 6)
acordes
Monsoon
tablatura
Monsoon (ver 2)
tablatura
Monsoon (ver 3)
tablatura
Monsoon (ver 4)
tablatura
Monsoon (ver 5)
tablatura
Monsoon (ver 6)
tablatura
Monsoon (ver 7)
tablatura
Monsoon (ver 8)
tablatura
Monsoon
bajo
Descubre más canciones de Tokio Hotel