Monsoon, Tokio Hotel (tablatura) (ver 7)

Autor: diegojuan | 21726 visualizaciones

aki les dejo una tablatura completa de el grupo musical,,tokio hotel,,,,espero que les guste.
,cualquier sugerencia: al correo diegodef@live.com
verso:

1-----------------------------------
2-----------------------------------
3------------------------------------
4---5-5-5-6-6-6-5-5---1-1-1-2-2-2-1-1     x5
5---6-6-6-6-6-6-6-6---2-2-2-2-2-2-2-2 
6------------------------------------
 

1---4--      1---   
2---4--      2---
3---4--      3---
4---46- = x6 4---     =x6
5---46-      5---1  
6---4--      6---2


1-----------------------------------
2-----------------------------------
3------------------------------------
4---5-5-5-6-6-6-5-5---1-1-1-2-2-2-1-1     x5
5---6-6-6-6-6-6-6-6---2-2-2-2-2-2-2-2 
6------------------------------------



1---4------       1---4   
2---4------       2---4
3---4------       3---4
4---46-x6   = x6  4---46     =x6
5---46-----       5---44  
6---4------       6---4

coro:
1---2--2--2-----1--1--1----2--2--2---1--1--1
2----4--4--4-----2--2--2----4--4--4---2--2--2 
3-----4--4--------1--1-------3--3------3--3
4--------------------------------------------
5--------------------------------------------
6--------------------------------------------

1---2--2--2-----1--1--1------1--1--1----2--2--2---1---11-13-11-
2----4--4--4-----2--2--2-------2--2--2---4--4-4---2------------12
3-----4--4--------1--1----------3--3-----3--3-----1----
4------------------------------------------------------
5------------------------------------------------------
6------------------------------------------------------
verso:
1-----------------------------------
2-----------------------------------
3------------------------------------
4---5-5-5-6-6-6-5-5---1-1-1-2-2-2-1-1     x5
5---6-6-6-6-6-6-6-6---2-2-2-2-2-2-2-2 
6------------------------------------
 

1---4--      *1---   
2---4--      *2---
3---4--      *3---
4---46- = x6 *4---     =x6
5---46-      *5---1  
6---4--      *6---2


1----------------------------------
2--4-4-4-4-4-4-4-4-4-4-4-4-4-4-4-4-6-4-4-4-4-4-4-4-4-
3----------------------------------------------------
4-----------------------------------------------------
5------------------------------------------------------
6--------------------------------------------------------

1----------------------------------
2--2-2-2-2-1-1-1-1--------------------------------
3----------------------------------------------------
4-----------------------------------------------------
5------------------------------------------------------
6--------------------------------------------------------


coro:
1---2--2--2-----1--1--1----2--2--2---1--1--1
2----4--4--4-----2--2--2----4--4--4---2--2--2 
3-----4--4--------1--1-------3--3------3--3
4--------------------------------------------
5--------------------------------------------
6--------------------------------------------

1---2--2--2-----1--1--1------1--1--1----2--2--2---1---11-13-11-
2----4--4--4-----2--2--2-------2--2--2---4--4-4---2------------12
3-----4--4--------1--1----------3--3-----3--3-----1----
4------------------------------------------------------
5------------------------------------------------------
6------------------------------------------------------

1---2--2--2-----1--1--1------1--1--1----2--2--2---1---
2----4--4--4-----2--2--2-------2--2--2---4--4-4---2----
3-----4--4--------1--1----------3--3-----3--3-----1----
4------------------------------------------------------
5------------------------------------------------------
6------------------------------------------------------


1---------------------------
2-----------------------------
3---------------------------
4--6-6-6-5-5--5-2-2-2-1-1-1  x3
5--6-6-6-6-6--6-2-2-2-1-1-1
6-----------------------------


1---2-----1-----2-----2-----22
2---4-----2-----2-----4--x3-44
3---4-----1-----3-----3-----33
4---------------------------------
5--------------------------------
6----------------------------------

esto va rasgado:

coro:
1---2--2--2-----1--1--1----2--2--2---1--1--1
2----4--4--4-----2--2--2----4--4--4---2--2--2 
3-----4--4--------1--1-------3--3------3--3
4--------------------------------------------
5--------------------------------------------
6--------------------------------------------

1---2--2--2-----1--1--1------1--1--1----2--2--2---1---
2----4--4--4-----2--2--2-------2--2--2---4--4-4---2----
3-----4--4--------1--1----------3--3-----3--3-----1----
4------------------------------------------------------
5------------------------------------------------------
6------------------------------------------------------

1---2--2--2-----1--1--1------1--1--1----2--2--2---1---
2----4--4--4-----2--2--2-------2--2--2---4--4-4---2----
3-----4--4--------1--1----------3--3-----3--3-----1----
4------------------------------------------------------
5------------------------------------------------------
6------------------------------------------------------


final:
1-----------------------------------
2-----------------------------------
3------------------------------------
4---5-5-5-6-6-6-5-5---1-1-1-2-2-2-1-1     x5
5---6-6-6-6-6-6-6-6---2-2-2-2-2-2-2-2 
6------------------------------------
Calificar esta versión:
Aviso: Este fichero es trabajo propio de su transcriptor y representa su interpretación personal de la canción. El material contenido en esta página es para exclusivo uso privado, por lo que se prohibe su reproducción o retransmisión, así como su uso para fines comerciales.
Más versiones de Monsoon, Tokio Hotel
Monsoon
acordes
Monsoon (ver 2)
acordes
Monsoon (ver 3)
acordes
Monsoon (ver 4)
acordes
Monsoon (ver 5)
acordes
Monsoon (ver 6)
acordes
Monsoon
tablatura
Monsoon (ver 2)
tablatura
Monsoon (ver 3)
tablatura
Monsoon (ver 4)
tablatura
Monsoon (ver 5)
tablatura
Monsoon (ver 6)
tablatura
Monsoon (ver 7)
tablatura
Monsoon (ver 8)
tablatura
Monsoon
bajo
Descubre más canciones de Tokio Hotel