Monsoon, Tokio Hotel (tablatura) (ver 3)

Autor: poredna | 27581 visualizaciones

                   Tokio Hotel
                    Monsoon
Verse 1:
e|-----------------------|-----------------------|
B|-----------------------|-----------------------|
G|-----------------------|-----------------------| x5
D|--6----6--7----7--6\---|--2----2--3----3--2----|
A|--7----7--7----7--7\---|--3----3--3----3--3----|
E|-----------------------|-----------------------|

e|-----------------------|-----------------------|
B|-----------------------|-----------------------|
G|-----------------------|--0----0--0----0--0----|
D|--7----7--7----7--7----|--0----0--0----0--0----|
A|--7----7--7----7--7----|--2----2--2----2--2----|
E|--5----5--5----5--5----|--3----3--3----3--3----|

e|-----------------------|-----------------------|
B|-----------------------|-----------------------|
G|-----------------------|-----------------------| x3
D|--6----6--7----7--6\---|--2----2--3----3--2----|
A|--7----7--7----7--7\---|--3----3--3----3--3----|
E|-----------------------|-----------------------|

e|-----------------------|-----------------------|
B|-----------------------|-----------------------|
G|-----------------------|--0----0--0----0--0----|
D|--7----7--7----7--7----|--0----0--0----0--0----|
A|--7----7--7----7--7----|--2----2--2----2--2----|
E|--5----5--5----5--5----|--3----3--3----3--3----|

Chorus 1:

e|2--------2--------2----|-1--------1--------1-----|
B|---4--------4--------4-|----2--------2--------2--|
G|------4--------4-------|-------1--------1--------|
D|-----------------------|-------------------------|
A|-----------------------|-------------------------|
E|-----------------------|-------------------------|

e|2--------2--------2----|-1--------1--------1-----|
B|---4--------4--------4-|----2--------2--------2--|
G|------3--------3-------|-------3--------3--------|
D|-----------------------|-------------------------|
A|-----------------------|-------------------------|
E|-----------------------|-------------------------|

e|2--------2--------2----|-1--------1--------1-----|
B|---4--------4--------4-|----2--------2--------2--|
G|------4--------4-------|-------1--------1--------|
D|-----------------------|-------------------------|
A|-----------------------|-------------------------|
E|-----------------------|-------------------------|

e|1--------1--------1----|-2--------2--------2-----|
B|---2--------2--------2-|----4--------4--------4--|
G|------3--------3-------|-------4--------4--------|
D|-----------------------|-------------------------|
A|-----------------------|-------------------------|
E|-----------------------|-------------------------|

e|2--------2--------2----|--1~~~-------------------|
B|---4--------4--------4-|--2~~~-------------------|
G|------4--------4-------|--1~~~-------------------|
D|-----------------------|-------------------------|
A|-----------------------|-------------------------|
E|-----------------------|-------------------------|
Verse 2:
e|-----------------------|-----------------------|
B|-----------------------|-----------------------|
G|-----------------------|-----------------------| x5
D|--6----6--7----7--6\---|--2----2--3----3--2----|
A|--7----7--7----7--7\---|--3----3--3----3--3----|
E|-----------------------|-----------------------|
e|-----------------------|-----------------------|
B|-----------------------|-----------------------|
G|-----------------------|--0----0--0----0--0----|
D|--7----7--7----7--7----|--0----0--0----0--0----|
A|--7----7--7----7--7----|--2----2--2----2--2----|
E|--5----5--5----5--5----|--3----3--3----3--3----|

e|-----------------------|-----------------------|
B|-----------------------|-----------------------|
G|-----------------------|-----------------------| x3
D|--6----6--7----7--6\---|--2----2--3----3--2----|
A|--7----7--7----7--7\---|--3----3--3----3--3----|
E|-----------------------|-----------------------|

e|-----------------------|-----------------------|
B|-----------------------|-----------------------|
G|-----------------------|--0----0--0----0--0----|
D|--7----7--7----7--7----|--0----0--0----0--0----|
A|--7----7--7----7--7----|--2----2--2----2--2----|
E|--5----5--5----5--5----|--3----3--3----3--3----|
Chorus 2:
e|2--------2--------2----|-1--------1--------1-----|
B|---4--------4--------4-|----2--------2--------2--|
G|------4--------4-------|-------1--------1--------|
D|-----------------------|-------------------------|
A|-----------------------|-------------------------|
E|-----------------------|-------------------------|

e|2--------2--------2----|-1--------1--------1-----|
B|---4--------4--------4-|----2--------2--------2--|
G|------3--------3-------|-------3--------3--------|
D|-----------------------|-------------------------|
A|-----------------------|-------------------------|
E|-----------------------|-------------------------|

e|2--------2--------2----|-1--------1--------1-----|
B|---4--------4--------4-|----2--------2--------2--|
G|------4--------4-------|-------1--------1--------|
D|-----------------------|-------------------------|
A|-----------------------|-------------------------|
E|-----------------------|-------------------------|

e|1--------1--------1----|-2--------2--------2-----|
B|---2--------2--------2-|----4--------4--------4--|
G|------3--------3-------|-------4--------4--------|
D|-----------------------|-------------------------|
A|-----------------------|-------------------------|
E|-----------------------|-------------------------|

e|2--------2--------2----|
B|---4--------4--------4-|
G|------4--------4-------|
D|-----------------------|
A|-----------------------|
E|-----------------------|

(Here Tom starts using full overdrive and power chords on the secondtake of the track, but you should keep playing the lead guitar chorus)

e|2--------2--------2----|-1--------1--------1-----|
B|---4--------4--------4-|----2--------2--------2--|
G|------4--------4-------|-------1--------1--------|
D|-----------------------|-------------------------|
A|-----------------------|-------------------------|
E|-----------------------|-------------------------|

e|2--------2--------2----|-1--------1--------1-----|
B|---4--------4--------4-|----2--------2--------2--|
G|------3--------3-------|-------3--------3--------|
D|-----------------------|-------------------------|
A|-----------------------|-------------------------|
E|-----------------------|-------------------------|

e|2--------2--------2----|-1--------1--------1-----|
B|---4--------4--------4-|----2--------2--------2--|
G|------4--------4-------|-------1--------1--------|
D|-----------------------|-------------------------|
A|-----------------------|-------------------------|
E|-----------------------|-------------------------|

Bridge(Bill Kaulitz screams "Hey!")
e|--------------------------|--------------------------|
B|--------------------------|--------------------------|
G|--------------------------|--------------------------| x6
D|--7--7--7--6--6--6--x--x--|--3--3--3--2--2--2--x--x--|
A|--7--7--7--7--7--7--x--x--|--3--3--3--3--3--3--x--x--|
E|--------------------------|--------------------------|

e|----------------------|
B|----------------------|
G|----------------------|
D|--2~~~----------------|
A|--2~~~----------------|
E|--0~~~----------------|

e|--12------14----12------|----------------------|
B|------------------------|--13~~~---------------|
G|------------------------|----------------------| x3
D|------------------------|----------------------|
A|------------------------|----------------------|
E|------------------------|----------------------|

e|--12~~~-----------------|
B|------------------------|
G|------------------------|
D|------------------------|
A|------------------------|
E|------------------------|
Verse 3(before Bill says "Running through the Monsoon":
e|--------------------------|--------------------------|
B|--------------------------|--------------------------|
G|--------------------------|--------------------------|
D|--5--5--5--5--5--5--5--5--|--7--7--7--7--7--7--7--7--|
A|--3--3--3--3--3--3--3--3--|--5--5--5--5--5--5--5--5--|
E|--3--3--3--3--3--3--3--3--|--5--5--5--5--5--5--5--5--|

e|--------------------------|--------------------------|
B|--------------------------|--------------------------|
G|--------------------------|--------------------------|
D|--9--9--9--9--9--9--9--9--|--9--9--9--9--9--9--9--9--|
A|--7--7--7--7--7--7--7--7--|--9--9--9--9--9--9--9--9--|
E|--7--7--7--7--7--7--7--7--|--7--7--7--7--7--7--7--7--|

e|--------------------------|--------------------------|
B|--------------------------|--------------------------|
G|--5--5--5--5--5--5--5--5--|--7--7--7--7--7--7--7--7--|
D|--5--5--5--5--5--5--5--5--|--7--7--7--7--7--7--7--7--|
A|--3--3--3--3--3--3--3--3--|--5--5--5--5--5--5--5--5--|
E|--3--3--3--3--3--3--3--3--|--5--5--5--5--5--5--5--5--|

e|--------------------------|--------------------------|
B|--------------------------|--------------------------|
G|--------------------------|--9--9--9--9--9--9--9--9--|
D|--9--9--9--9--9--9--9--9--|--9--9--9--9--9--9--9--9--|
A|--9--9--9--9--9--9--9--9--|--7--7--7--7--7--7--7--7--|
E|--7--7--7--7--7--7--7--7--|--7--7--7--7--7--7--7--7--|

e|--------------------------|--------------------------|
B|--------------------------|--------------------------|
G|--5--5--5--5--5--5--5--5--|--7--7--7--7--7--7--7--7--|
D|--5--5--5--5--5--5--5--5--|--7--7--7--7--7--7--7--7--|
A|--3--3--3--3--3--3--3--3--|--5--5--5--5--5--5--5--5--|
E|--3--3--3--3--3--3--3--3--|--5--5--5--5--5--5--5--5--|

e|--------------------------|--------------------------|
B|--------------------------|--------------------------|
G|--9--9--9--9--9--9--9--9--|--------------------------|
D|--9--9--9--9--9--9--9--9--|--9--9--9--9--9--9--9--9--|
A|--7--7--7--7--7--7--7--7--|--9--9--9--9--9--9--9--9--|
E|--7--7--7--7--7--7--7--7--|--7--7--7--7--7--7--7--7--|

e|--------------------------|--------------------------|
B|--------------------------|--------------------------|
G|--5--5--5--5--5--5--5--5--|--7--7--7--7--7--7--7--7--|
D|--5--5--5--5--5--5--5--5--|--7--7--7--7--7--7--7--7--|
A|--3--3--3--3--3--3--3--3--|--5--5--5--5--5--5--5--5--|
E|--3--3--3--3--3--3--3--3--|--5--5--5--5--5--5--5--5--|
Ending:
e|-----------------------|-----------------------|
B|-----------------------|-----------------------|
G|-----------------------|-----------------------| x3
D|--6----6--7----7--6\---|--2----2--3----3--2----|
A|--7----7--7----7--7\---|--3----3--3----3--3----|
E|-----------------------|-----------------------|

e|-----------------------|--------------------------|
B|-----------------------|--------------------------|
G|-----------------------|--0--0-----0-----0--0~~~--|
D|--6----6--7----7--6\---|--2--2-----2-----2--2~~~--|
A|--7----7--7----7--7\---|--3--3-----3-----3--3~~~--|
E|-----------------------|--------------------------|

Aqui les deje toda la cancion .

Disfrutenla!

Comentarios del colaborador: Transforme las tablaturas que salen en www.911tabs.com y www.tabcrawler.com

Calificar esta versión:
Aviso: Este fichero es trabajo propio de su transcriptor y representa su interpretación personal de la canción. El material contenido en esta página es para exclusivo uso privado, por lo que se prohibe su reproducción o retransmisión, así como su uso para fines comerciales.
Más versiones de Monsoon, Tokio Hotel
Monsoon
acordes
Monsoon (ver 2)
acordes
Monsoon (ver 3)
acordes
Monsoon (ver 4)
acordes
Monsoon (ver 5)
acordes
Monsoon (ver 6)
acordes
Monsoon
tablatura
Monsoon (ver 2)
tablatura
Monsoon (ver 3)
tablatura
Monsoon (ver 4)
tablatura
Monsoon (ver 5)
tablatura
Monsoon (ver 6)
tablatura
Monsoon (ver 7)
tablatura
Monsoon (ver 8)
tablatura
Monsoon
bajo
Descubre más canciones de Tokio Hotel