Monsoon, Tokio Hotel (tablatura) (ver 4)

Autor: alklan | 24133 visualizaciones

Riff 1
E|-----------------|-----------------|
B|-----------------|-----------------|
G|-----------------|-----------------|
D|-6-6-6-7-7-7-7-7-|-2-2-2-3-3-3-3-3-|
A|-7-7-7-7-7-7-7-7-|-3-3-3-3-3-3-3-3-|
E|-----------------|-----------------|

Riff 2
E|---------------------------------|
B|---------------------------------|
G|---------------------------------|
D|-5-5-5-5-5-5-5-5-4-4-4-4-4-4-4-4-|
A|-5-5-5-5-5-5-5-5-5-5-5-5-5-5-5-5-|
E|---------------------------------|

Riff 3
E-3------3----3---|-2------2------2------|
B---5------5----5-|---3------3------3----|
G-----5------5----|-----2------2-------2-|
D-----------------|----------------------|
A-----------------|----------------------|
E-----------------|----------------------|

E|-3-----3----3---|-2-----2-----2---|
B|---5-----5----5-|---3-----3-----3-|
G|-----4-----4----|-----4-----4-----|
D|----------------|-----------------|
A|----------------|-----------------|
E|----------------|-----------------|



Riff 4
E|-3------3----3---|-2------2------2------|
B|---5------5----5-|---3------3------3----|
G|-----5------5----|-----2------2-------2-|
D|-----------------|----------------------|
A|-----------------|----------------------|
E|-----------------|----------------------|

E|-2-----2----2---|-3-----3-----3---|
B|---3-----3----3-|---5-----5-----5-|
G|-----4-----4----|-----4-----4-----|
D|----------------|-----------------|
A|----------------|-----------------|
E|----------------|-----------------|

Riff5
E|-0-0-0-0-0-0-0-0-0-0-0-0-0-0-0-0-0-0-0-0-0-0-0-0-|
b|-3/5-5-5-5-5-5-5-5-5-5-5-5-5-5-5-3-3-3-3-2-2-2-2-|
G|-------------------------------------------------|
D|-------------------------------------------------|
A|-------------------------------------------------|
E|-------------------------------------------------|

Riff6
E|-----------------------------------------------------------|
B|-----------------------------------------------------------|
G|-14--14--14--13--13--13--13--13--10--10--10--9--9--9--9--9-|
D|-----------------------------------------------------------|
A|-12--12--12--11--11--11--11--11--8---8---8---7--7--7--7--7-|
E|-----------------------------------------------------------|


Riff7
E|-3--|-5--|-7--|-2--|
B|-5--|-7--|-8--|-3--|
G|-5--|-7--|-9--|-4--|
D|-5--|-7--|-9--|-4--|
A|-3--|-5--|-7--|-2--|
E|----|----|----|----|

Y ASI VA LA CANCION:


INTRO:(Riff1)x2

(Riff 1)
I'm staring at a broken door,
there's nothing left here anymore.
My room is cold,
it's making me insane.
I've been waiting here so long,
but now the moment seems to've come,
I see the dark clouds coming up again.
(Riff 2)

                     (Riff3)  -  (Riff4)
Running through the monsoon,
beyond the world,
to the end of time,
where the rain won't hurt
Fighting the storm,
into the blue,
and when I loose myself I think of you,
together we'll be running somewhere new

(Riff1)
Through the monsoon.
Just me and you.
A half moon's fading from my sight,
I see your vision in its light.

(Riff 2)
But now its gone and left me so alone

(Riff 5)
I know I have to find you now,
can hear your name, I dont know how.
Why can't we make this darkness feel like home?

                    (Riff 3)  -  (Riff 4)
Running through the monsoon,
beyond the world,
to the end of time,
where the rain won't hurt
fighting the storm,
into the blue,
and when I loose myself I think of you,
together we'll be running somewhere new
and nothing can hold me back from you.
Through the monsoon. 

(Hey! Hey!)
(Riff6)x5

I'm fighting all this power,
coming in my way
let it take me straight to you,
I've been running night and day. 

I'll be with you soon
just me and you.

(Riff7)x3
We'll be there soon
so soon.

                    (Riff3)   (Riff4)
Running through the monsoon,
beyond the world,
to the end of time,
where the rain wont hurt
Fighting the storm,
into the blue,
and when I loose myself I think of you,
together we'll be running somewhere new
and nothing can hold me back from you.

Through the monsoon.
Through the monsoon.
Just me and you.
Through the monsoon.
Just me and you.

y EL FINAL ES ASI:

E|------------0--|
B|------------0--|
G|------------0--|
D|--2-3-X-3-X-2--|
A|--3-3-X-3-X-3--|
E-------------0--|

Comentarios del colaborador: TRABAJE DURO EN ESO ASI QUE VOTEN Y PONGAN SUS COMMENTS....

Calificar esta versión:
Aviso: Este fichero es trabajo propio de su transcriptor y representa su interpretación personal de la canción. El material contenido en esta página es para exclusivo uso privado, por lo que se prohibe su reproducción o retransmisión, así como su uso para fines comerciales.
Más versiones de Monsoon, Tokio Hotel
Monsoon
acordes
Monsoon (ver 2)
acordes
Monsoon (ver 3)
acordes
Monsoon (ver 4)
acordes
Monsoon (ver 5)
acordes
Monsoon (ver 6)
acordes
Monsoon
tablatura
Monsoon (ver 2)
tablatura
Monsoon (ver 3)
tablatura
Monsoon (ver 4)
tablatura
Monsoon (ver 5)
tablatura
Monsoon (ver 6)
tablatura
Monsoon (ver 7)
tablatura
Monsoon (ver 8)
tablatura
Monsoon
bajo
Descubre más canciones de Tokio Hotel