A Puro Dolor, Son By Four (tablatura) (ver 3)

Autor: CesarGlz | 39642 visualizaciones

Version Real:

e|-0-3-3-3-1-0--------------------------------------------|
B|-------------3-1------1-3-3s5-3-1------1-1----1-1-------|
G|-----------------2---2------------0-0-2----2-0----0-----|
D|----------------------------------------------------3---|
A|--------------------------------------------------------|
E|--------------------------------------------------------|

e|------0-1-0-------------|
B|-1-1-3------1s3-1-------|
G|------------------------|
D|------------------------|
A|------------------------|
E|------------------------|




Esta es otra version que sacamos, lo ultimo es rapido: e|-0-3-3-3-1-0----------------------------------------------| B|-------------3-1------1-3-3s5-3-1------1-1----1-1-3-5-3-3-| G|-----------------2---2------------0-0-2----2-0------------| D|----------------------------------------------------------| A|----------------------------------------------------------| E|----------------------------------------------------------| e|-3-1-0-----------| B|------3-1-0------| G|-----------2-0---| <----Rapido D|-----------------| A|-----------------| E|-----------------|
Calificar esta versión:
Aviso: Este fichero es trabajo propio de su transcriptor y representa su interpretación personal de la canción. El material contenido en esta página es para exclusivo uso privado, por lo que se prohibe su reproducción o retransmisión, así como su uso para fines comerciales.
Más versiones de A Puro Dolor, Son By Four
A Puro Dolor
acordes
A Puro Dolor (ver 2)
acordes
A Puro Dolor (ver 3)
acordes
A Puro Dolor (ver 4)
acordes
A Puro Dolor (ver 5)
acordes
A Puro Dolor (ver 6)
acordes
A Puro Dolor (ver 7)
acordes
A Puro Dolor
tablatura
A Puro Dolor (ver 2)
tablatura
A Puro Dolor (ver 3)
tablatura
A Puro Dolor
bajo
A Puro Dolor (ver 2)
bajo
Descubre más canciones de Son By Four