A Puro Dolor, Son By Four (bajo)

Autor: Anónimo | 31025 visualizaciones

La afinacion del bajo es D-dropped (D A D G) 

Empezamos!!!

El principio el bajo esta callado...
  Q=75
 4/4
  Gtr I
  W          W          W          W
|----------|----------|----------|------|
|----------|----------|----------|------|
|----------|----------|----------|------|
|----------|----------|----------|------|


  W          W          W          W
|----------|----------|----------|------|
|----------|----------|----------|------|
|----------|----------|----------|------|
|----------|----------|----------|------|


  W          W          W          H    Q  E S S
|----------|----------|----------|----------------|
|----------|----------|----------|----------------|
|----------|----------|----------|-----------0-2--|
|----------|----------|----------|---------5------|


  H    H      Q.   E H      H    H      H    Q  Q
|-----------|-------------|-----------|------------|
|-----------|-------------|-----------|------------|
|-3----2----|-0----0------|-----------|------------|
|-----------|--------2----|-3----2----|-0----5--5--|


  H    Q  +S  S E   Q.   E Q.   E   Q.   E Q  +S  S E   H    E. S E E
|-----------------|---------------|-------------------|---------------|
|-----------------|---------------|-------------------|---------5-5-5-|
|-0---------------|---------------|-0----0------------|---------------|
|------2--(2)---2-|-3----3-5----5-|--------2--(2)---2-|-3----5--------|


  Q  +S  S E Q  Q    Q  +S  S S S Q  +S  S S S   Q  +S  S S S Q  +S  S E
|------------------|---------------------------|--------------------------|
|------------------|---------------------------|--------------------------|
|-3--(3)---3-------|-0--(0)---0----------------|--------------------------|
|------------2--2--|--------------2--(2)---2---|-3--(3)---3---2--(2)---2--|


  Q  +S  S E Q  E S S   Q.   E Q  Q    Q  +S  S E Q.   E   Q.   E Q.   E
|---------------------|--------------|-------------------|----------------|
|---------------------|-----------2--|-------------------|----------------|
|-----------------0-2-|-3----3-------|-0--(0)---0--------|----------------|
|-0--(0)---0-5--5-----|--------2-----|------------2----2-|-3----3-2----2--|


  Q.   E H      H    H      H    H      Q.   S S H
|-------------|-----------|-----------|---------------|
|-------------|-----------|-----------|---------------|
|-------------|-3----2----|-0---------|---------------|
|-0----0-5----|-----------|------5----|-4----4---4----|


  H    Q  E S S   H    H      Q.   E H      H    H
|---------------|-----------|-------------|-----------|
|---------------|-----------|-------------|-----------|
|-----------0-2-|-3----2----|-0----0------|-----------|
|-5----5--5-----|-----------|--------2----|-3----2----|


  H    Q  Q    H    Q  +S  S E   Q.   E Q.   E   Q.   E Q  +S  S E
|------------|-----------------|---------------|-------------------|
|------------|-----------------|---------------|-------------------|
|------------|-0---------------|---------------|-0----0------------|
|-0----5--5--|------2--(2)---2-|-3----3-5----5-|--------2--(2)---2-|


  H    E. S E E   Q  +S  S E Q  Q    Q  +S  S S S Q  +S  S S S
|---------------|------------------|----------------------------|
|---------5-5-5-|------------------|----------------------------|
|---------------|-3--(3)---3-------|-0--(0)---0-----------------|
|-3----5--------|------------2--2--|--------------2--(2)---2----|


  Q  +S  S S S Q  +S  S E   Q  +S  S E Q  E S S   Q.   E Q  Q
|-------------------------|---------------------|---------------|
|-------------------------|---------------------|-----------2---|
|-------------------------|-----------------0-2-|-3----3--------|
|-3--(3)---3---2--(2)---2-|-0--(0)---0-5--5-----|--------2------|


  Q  +S  S E Q.   E   Q.   E Q.   E   Q.   E H      Q  +S  S E Q.   E
|-------------------|---------------|-------------|-------------------|
|-------------------|---------------|-------------|------------2----2-|
|-0--(0)---0--------|---------------|-------------|-3--(3)---3--------|
|------------2----2-|-3----3-2----2-|-0----0-5----|-------------------|


  Q  +S  S S S Q  +S  S S S   Q.   S S Q.   S S   Q.   E E. S S S E
|---------------------------|-------------------|-------------------|
|--------------2--(2)---2---|-3----3------------|-------------------|
|-0--(0)---0----------------|----------5----5---|--------0--2-2-4-0-|
|---------------------------|-------------------|-5----5------------|


  E E E S S Q  E S S   Q  E S S Q  +S  S S S   Q  +S  S S S Q.   S S
|--------------------|-----------------------|------------------------|
|--------------------|-----------------------|------------------------|
|-5-----5---4----4---|-2--2---2-0--(0)---0---|------------------------|
|--------------------|------5----------------|-5--(5)---5---4----0-4--|


  Q.   S S E. S S S S S   H    S S E +Q     H    S S E +Q
|-----------------------|-----------------|------------------|
|-----------------------|-0---------------|------------------|
|----------0--2-4-2-0-4-|------4---4-(4)--|-2----------------|
|-2----2-5--------------|-----------------|------4---4-(4)---|


  H    Q  +S  S S S   Q  +S  S S S Q  Q    Q  +S  S S S H
|-------------------|--------------------|-------------------|
|-------------------|--------------------|-------------------|
|-------------------|--------------0--0--|-5--(5)---5---4----|
|-5----4--(4)---4---|-2--(2)---2-5-------|-------------------|


  H    H      H    H      Q  +S  S S S H      H    H
|-----------|-----------|-------------------|-----------|
|-----------|-----------|-------------------|-----------|
|-2----0----|-----------|-0--(0)---0---0----|-5----4----|
|-----------|-5----5----|-------------------|-----------|


              Q=55 Q=45    Q=60
  H    H      H    Q  Q    W          +H     +E  E Q
|-----------|------------|----------|-----------------*|
|-----------|------------|----------|-----------------*|
|-2----0----|------0--0--|----------|-----------------*|
|-----------|-5----------|-0--------|-(0)----(0)------*|

FIN!!!
- BUENO AQUI ABAJO ESTA EL SIGNIFICADO DE LAS LETRAS Y LOS SIGNOS...
- ESPERO QUE LES HAYA AGRADADO Y SOBRETODO QUE LE HAYAN ENTENDIDO...
- POR SI ALGUNA RAZON NO LE ENTIENDEN PUES HECHENME UN MAIL A: sNaKePiTs@guitar.com
- SI QUIEREN ALGUNA PETICION PUES TAMBIEN HECHENME UN MAIL...
- ESTA CANCION Y OTRAS LAS TENGO EN ARCHIVOS POWERTAB, POR SI ALGUIEN LA QUIERE...
  PUES HECHENME UN MAIL PIDIENDOLAS...
- LOS VERE EN LA PROXIMA CANCION!!!...

NOTA!!!: PUEDEN UTILIZAR ESTA TAB PARA PUBLICARLA DONDE USTEDES QUIERAN,
PERO POR FAVOR LES RUEGO QUE ME DEN LOS CREDITOS COMO AUTOR DE LA MISMA...GRACIAS!!!

NESTOR SADAO ARECHIGA CERVANTES (sNaKePiTs@guitar.com)


LEYENDA DE LAS NOTAS:

W = (REDONDA)     NOTA COMPLETA
H = (BLANCA)      MEDIA NOTA
Q = (NEGRA)       CUARTO DE NOTA
E = (CORCHEA)     OCTAVO DE NOTA
S = (SEMICORCHEA) DIECISEISAVA DE NOTA
T = (FUSA)        TREINTAIDOSAVA DE NOTA
X = (SEMIFUSA)    SESENTAICUATROAVA DE NOTA

a  =  ACCIACCATURA
+  =  LIGADURA
.  =  AUMENTA LA DURACION DE LA NOTA
.. =  AUMENTA LA DOBLE DE LA DURACION DE LA NOTA


LEYENDA DEL 'PENTAGRAMA'
 |  - COMPAS
||  - DOBLE COMPAS
||o - ES DONDE VA A COMENZAR CUANDO ALGO SE VA A REPETIR
o|| - ES DONDE VA A TERMINAR CUANDO ALGO SE VA A REPETIR
*|  - FIN DE LA CANCION
 :  - COMPAS LIBRE
 $  - SEGNO (AL VER ESTE SIGNO, TENEMOS QUE RETROCEDER HASTA VER EL SIGNO ANTERIOR $...)
 &  - CODA (SIGNIFICA QUE DEBES PASAR LA SIGUIENTE SIGNO &)
Calificar esta versión:
Aviso: Este fichero es trabajo propio de su transcriptor y representa su interpretación personal de la canción. El material contenido en esta página es para exclusivo uso privado, por lo que se prohibe su reproducción o retransmisión, así como su uso para fines comerciales.
Más versiones de A Puro Dolor, Son By Four
A Puro Dolor
acordes
A Puro Dolor (ver 2)
acordes
A Puro Dolor (ver 3)
acordes
A Puro Dolor (ver 4)
acordes
A Puro Dolor (ver 5)
acordes
A Puro Dolor (ver 6)
acordes
A Puro Dolor (ver 7)
acordes
A Puro Dolor
tablatura
A Puro Dolor (ver 2)
tablatura
A Puro Dolor (ver 3)
tablatura
A Puro Dolor
bajo
A Puro Dolor (ver 2)
bajo
Descubre más canciones de Son By Four