A Puro Dolor, Son By Four (tablatura) (ver 2)

Autor: henry94935 | 19859 visualizaciones

e)------------------------------------------------------
b)-5-8-8-8-6-5---------5--------------------------------
g)-------------7-5-5-7---7-5-----5-5------55------------
d)---------------------------5-7-----3-5----------------
a)------------------------------------------------------
e)------------------------------------------------------



e)------------------------------------------------------
b)----------------5-6-5------------------------------------
g)------5-5--5-7----------7-5-5--------------------------------
d)-2-3-----------------------------------------------------
a)-------------------------------------------------------
e)-------------------------------------------------------

Comentarios del colaborador: esta cancion la sak para ustedes es k los k sakaron las demas personas estaban ekivokadas y xfa comentn

Calificar esta versión:
Aviso: Este fichero es trabajo propio de su transcriptor y representa su interpretación personal de la canción. El material contenido en esta página es para exclusivo uso privado, por lo que se prohibe su reproducción o retransmisión, así como su uso para fines comerciales.
Más versiones de A Puro Dolor, Son By Four
A Puro Dolor
acordes
A Puro Dolor (ver 2)
acordes
A Puro Dolor (ver 3)
acordes
A Puro Dolor (ver 4)
acordes
A Puro Dolor (ver 5)
acordes
A Puro Dolor (ver 6)
acordes
A Puro Dolor (ver 7)
acordes
A Puro Dolor
tablatura
A Puro Dolor (ver 2)
tablatura
A Puro Dolor (ver 3)
tablatura
A Puro Dolor
bajo
A Puro Dolor (ver 2)
bajo
Descubre más canciones de Son By Four