A Puro Dolor, Son By Four (acordes) (ver 2)

Autor: carl619 | 38689 visualizaciones

cfglammim
E/------------------------------------|-----------------/
B/-5-8-8-8-6-5h6----------------------|---5---5-5-------/
G/----------------7-5---5-7--7/9-7----|----5-5----------/
D/--------------------7------------10-|5/7--------3-----/
A/------------------------------------|-----------------/
E/------------------------------------|-----------------/

E/-----------------------------------------/
B/-----5-5/6----7h9--7---------------------/
G/-5-7-------9----------10-----------------/
D/-----------------------------------------/
A/-----------------------------------------/
E/-----------------------------------------/

el ritmo es arpegiado antes de llegar a el pre-coro

C                   G
Perdona si te estoy llamando en este momento
Lam            Mim                 F
Pero me hacia falta escuchar de nuevo
C              G
Aunque sea un instante tu respiracion
C                      G
Disculpa se que estoy violando
            
Nuestro juramento
Lam               Mim                    F
Se que estas con alguien, que no es el momento
C                 G
Pero hay algo urgente que decirte este hoy

    [PRE-CORO]

Lam             G               F        G
Estoy muriendo, muriendo por verte
Lam           Mim        F          G
Agonizando muy lento y muy fuerte

        [CORO]

C      G                     Lam
Vida, devuelveme mis fantasias
G                        F
Mis ganas de vivir la vida
C               G
Devuelveme el aire...

       C     G                     Lam 
Carino mio, sin ti yo me siento vacio
    G                    F
Las tardes son un laberinto
    C             G
Y las noches me saben
   F       C
A puro dolor...
LO mismo con el resto de la canción

Quisiera decirte que hoy estoy de maravilla
Que no me ha afectado lo de tu partida
Pero con un dedo no se tapa el Sol 

Estoy muriendo, muriendo por verte...

Comentarios del colaborador: EL ARPEGIO ES MUY SENSILLO ES ...PULGAR INDICE. ANULAR Y MEDIO JUNTOS E INDICE... COMENTEN Y PUNTUEN...

Calificar esta versión:
Aviso: Este fichero es trabajo propio de su transcriptor y representa su interpretación personal de la canción. El material contenido en esta página es para exclusivo uso privado, por lo que se prohibe su reproducción o retransmisión, así como su uso para fines comerciales.
Más versiones de A Puro Dolor, Son By Four
A Puro Dolor
acordes
A Puro Dolor (ver 2)
acordes
A Puro Dolor (ver 3)
acordes
A Puro Dolor (ver 4)
acordes
A Puro Dolor (ver 5)
acordes
A Puro Dolor (ver 6)
acordes
A Puro Dolor (ver 7)
acordes
A Puro Dolor
tablatura
A Puro Dolor (ver 2)
tablatura
A Puro Dolor (ver 3)
tablatura
A Puro Dolor
bajo
A Puro Dolor (ver 2)
bajo
Descubre más canciones de Son By Four