A Puro Dolor, Son By Four (bajo) (ver 2)

Autor: Anónimo | 25665 visualizaciones

yo pienso que aca deberiamos sacar nosotros las transcripciones
y no hacernos ayudar con la compu
que fresco no?
Es para bajo de 5 cuerdas
pero aca solo de 4
00:24
Disculpa si es que
E|------|---|---|-50-|-1-|-0-|-----|-013--|
A|--023-|-2-|-0-|----|---|---|-765-|------|
D|------|---|---|----|---|---|-----|------|
G|------|---|---|----|---|---|-----|------|

Estoy muriendo
E|--5-|-50-|-1-|-13-|-5-|-50-|--01-|-3--|
A|----|----|---|----|---|----|-----|----|
D|----|----|---|----|---|----|-2---|----|
G|----|----|---|----|---|----|-----|----|

Vida
E|----|--0-|---|--00-|-1-|-10-|---|--33--|
A|--3-|-3--|-0-|-0---|---|----|-5-|-5----|
D|----|----|---|-----|---|----|---|------|
G|----|----|---|-----|---|----|---|------|

cariño mio
E|----|--0-|--0--|--00-|-1-|-10-|---|--33--|
A|--3-|-3--|---0-|-0---|---|----|-5-|-5----|
D|----|----|-2---|-----|---|----|---|------|
G|----|----|-----|-----|---|----|---|------|

quisiera decirte
E|-----|---|---|-50-|--01-|-0-|---|-013--|
A|--23-|-2-|-0-|----|-----|---|-5-|------|
D|-----|---|---|----|-2---|---|---|------|
G|-----|---|---|----|-----|---|---|------|

Estoy muriendo
E|--05-|-50-|-1-|-13-|-3535-|-50-|-1-|-13-|-3-33--|
A|-----|----|---|----|------|----|---|----|-------|
D|-----|----|---|----|------|----|---|----|-------|
G|-----|----|---|----|------|----|---|----|-------|

Vida
E|----|---0-|-035-|--00-|--01-|-10-|----|--0133--|
A|--3-|--3--|-----|-0---|-----|----|-55-|-5------|
D|----|-----|-----|-----|-2---|----|----|--------|
G|----|-5---|-----|-----|-----|----|----|--------|

cariño mio
E|----|--0-|-035-|--00-|-1-|-10-|---|--3--|
A|--3-|-3--|-----|-0---|---|----|-5-|-5---|
D|----|----|-----|-----|---|----|---|-----|
G|----|----|-----|-----|---|----|---|-----|

E|----|--0-|-035-|--00-|---01-|-1--|-----|-----|
A|--3-|-3--|-----|-0---|--2---|--5-|-5---|-----|
D|----|----|-----|-----|-2----|----|--35-|-77--|
G|----|----|-----|-----|------|----|-----|-----|

vida¡¡
E|-----|---|----|---3-|-322-|-0-|-0----|
A|--54-|-2-|-20-|-01--|-----|---|--00--|
D|-----|---|----|-----|-----|---|------|
G|-----|---|----|-----|-----|---|------|

cariño mio
E|----|-----|---|--22-|-3-|----2-|-210-|-0----|
A|--5-|-044-|-2-|-2---|---|------|-----|--00--|
D|----|-----|---|-----|---|-3h5--|-----|------|
G|----|-----|---|-----|---|------|-----|------|

dolooor
E|----|----|---|----|-3-|-33-|-------|
A|--5-|-50-|-2-|-20-|---|----|-0-00--|
D|----|----|---|----|---|----|-------|
G|----|----|---|----|---|----|-------|

atte. miauricio gatolar
Calificar esta versión:
Aviso: Este fichero es trabajo propio de su transcriptor y representa su interpretación personal de la canción. El material contenido en esta página es para exclusivo uso privado, por lo que se prohibe su reproducción o retransmisión, así como su uso para fines comerciales.
Más versiones de A Puro Dolor, Son By Four
A Puro Dolor
acordes
A Puro Dolor (ver 2)
acordes
A Puro Dolor (ver 3)
acordes
A Puro Dolor (ver 4)
acordes
A Puro Dolor (ver 5)
acordes
A Puro Dolor (ver 6)
acordes
A Puro Dolor (ver 7)
acordes
A Puro Dolor
tablatura
A Puro Dolor (ver 2)
tablatura
A Puro Dolor (ver 3)
tablatura
A Puro Dolor
bajo
A Puro Dolor (ver 2)
bajo
Descubre más canciones de Son By Four