The Man Who Sold The World, Nirvana (tablatura) (ver 5)

Autor: FuckOFDead | 35178 visualizaciones



Nirvana
                The man who sold the world
                    1ra y 2da GUITARRA

Los PUNTOS(...) que estas arriba de las tablaturas 
significan que sigas tocando el acorde.

Acordes 1ra y 2da Guitarra:

      A              Dm                  F            

1|----------    1|-1---------      1|-1----------
2|--2-------    2|-------3---      2|-1----------
3|--2-------    3|----2------      3|---2--------
4|--2-------    4|-----------      4|-----3------
5|----------    5|-----------      5|-----3------
6|----------    6|-----------      6|-1----------

      C             Bb 

1|-----------   1|-1--------- 
2|-1---------   2|----3------ 
3|-----------   3|----3------ 
4|-----2-----   4|----3------ 
5|--------3--   5|-1--------- 
6|-----------   6|-----------    



__________________________________________________________

                       INTRO:

         
          

1|---------------------|---------------------|
2|---------------------|---------------------|        
3|-2-2-2-0-2-3-2-0-----||2-2-2-0-2-3-2-0-----|
4|---------------------|---------------------|  
5|---------------------|---------------------| 
6|---------------------|---------------------|


  Dm...
1|---------------------|---------------------|
2|---------------------|---------------------|        
3|-2-2-2-0-2-3-2-0-----||2-2-2-0-2-3-2-0-----|
4|---------------------|---------------------|  
5|---------------------|---------------------| 
6|---------------------|---------------------|


  F.....................F................Dm.
1|---------------------|---------------------|
2|---------------------|---------------------|        
3|-2-2-2-0-2-3-2-0-----||2-2-2-0-2-3-2-0--1--|
4|---------------------|---------------------|  
5|---------------------|---------------------| 
6|---------------------|---------------------|


                    A 
We passed upon the stairs
                  Dm
Spoken walls and wells
                  A 
Although I wasn´t there
                  F
He said I was his friend
                    C
Which came as so surprised
                 A 
I spoke into his eyes
                    Dm
I thought you died alone
                     C
A long, long time ago
           F
Oh no, not me
   Bb                F
We never lost control
          C        F
You're face to face
         Bb               A 
With the man who sold the world

 Intro:

1|---------------------|---------------------|
2|---------------------|---------------------|        
3|-2-2-2-0-2-3-2-0-----||2-2-2-0-2-3-2-0-----|
4|---------------------|---------------------|  
5|---------------------|---------------------| 
6|---------------------|---------------------|


  Dm...
1|---------------------|---------------------|
2|---------------------|---------------------|        
3|-2-2-2-0-2-3-2-0-----||2-2-2-0-2-3-2-0-----|
4|---------------------|---------------------|  
5|---------------------|---------------------| 
6|---------------------|---------------------|


  F.....................F................Dm.
1|---------------------|---------------------|
2|---------------------|---------------------|        
3|-2-2-2-0-2-3-2-0-----||2-2-2-0-2-3-2-0--1--|
4|---------------------|---------------------|  
5|---------------------|---------------------| 
6|---------------------|---------------------|

                        A 
I laughed and shook his hand
                  Dm
Made my way back home
                         A 
I searched from farther land
                      F
Years and years I roamed
                      C
I gazed all gazers there
                     A 
We walked a million hills
                  Dm
I must have died alone
                     C
A long, long time ago
               F
Who knows, not me
  Bb                F
I never lost control
          C       F
You're face, to face
         Bb               A 
With the man who sold the world

  Intro:

1|---------------------|---------------------|
2|---------------------|---------------------|        
3|-2-2-2-0-2-3-2-0-----||2-2-2-0-2-3-2-0-----|
4|---------------------|---------------------|  
5|---------------------|---------------------| 
6|---------------------|---------------------|


  Dm...
1|---------------------|---------------------|
2|---------------------|---------------------|        
3|-2-2-2-0-2-3-2-0-----||2-2-2-0-2-3-2-0-----|
4|---------------------|---------------------|  
5|---------------------|---------------------| 
6|---------------------|---------------------|

C              F
Who knows, not me
   Bb                F
We never lost control
          C       F
You're face, to face
         Bb               A 
With the man who sold the world

1|---------------------|---------------------|
2|---------------------|---------------------|        
3|-2-2-2-0-2-3-2-0-----||2-2-2-0-2-3-2-0-----|
4|---------------------|---------------------|  
5|---------------------|---------------------| 
6|---------------------|---------------------|


  Dm...
1|---------------------|---------------------|
2|---------------------|---------------------|        
3|-2-2-2-0-2-3-2-0-----||2-2-2-0-2-3-2-0-----|
4|---------------------|---------------------|  
5|---------------------|---------------------| 
6|---------------------|---------------------|


  F.....................F................Dm.
1|---------------------|---------------------|
2|---------------------|---------------------|        
3|-2-2-2-0-2-3-2-0-----||2-2-2-0-2-3-2-0--1--|
4|---------------------|---------------------|  
5|---------------------|---------------------| 
6|---------------------|---------------------|

 Dm.................... Dm...................
1|---------------------|---------------------|
2|---------------------|---------------------|        
3|-2-2-2-0-2-3-2-0-----||2-2-2-0-2-3-2-0-----|
4|---------------------|---------------------|  
5|---------------------|---------------------| 
6|---------------------|---------------------|

Solo:

  A............. Dm..............................
1|-------------------------------------------------|
2|-------------------------------------------------|        
3|-/9-9-9-9-9-9--2-2-2-0--2h3p2-0--2-2-2-0-2h3p2-0-|
4|-------------------------------------------------|  
5|-------------------------------------------------| 
6|-------------------------------------------------|

  F....................Dm..............A............
1|----------------------------------------------------|
2|----------------------------------------------------|        
3|-/10-10-10-10-10-10--9--/7-7-7-7-7-7-/9-9-9-9-9-9---|
4|----------------------------------------------------|  
5|----------------------------------------------------| 
6|----------------------------------------------------|

  Dm...............................
1|------------------------------------------------|
2|------------------------------------------------|        
3|-2-2-2-0-2h3p2-0-2-2-2-0--2h3p2-0---------------|
4|------------------------------------------------|  
5|------------------------------------------------| 
6|------------------------------------------------|


  F...................Dm..............A............
1|----------------------------------------------------|
2|----------------------------------------------------|        
3|-/10-10-10-10-10-10--9--/7-7-7-7-7-7-/9-9-9-9-9-9---|
4|----------------------------------------------------|  
5|----------------------------------------------------| 
6|----------------------------------------------------|

  Dm.................................F.
1|------------------------------------------------|
2|------------------------------------------------|        
3|-2-2-2-0-2h3p2-0-2-2-2-0--2h3p2-0--2------------|
4|------------------------------------------------|  
5|------------------------------------------------| 
6|------------------------------------------------|

Fin..
_____________________________________________________

 Tabs de BAJO para la parte del coro

G|-----------------|-----------------|
D|-----------6-7-9-|-----------6-7-9-|
A|-----6-7-9-------|-----6-7-9-------|
E|-7-9-------------|-7-9-------------|

G|-----------------|----------------|
D|-----------6-7-9-|--------------2-|
A|-----6-7-9-------|--------2-4-5---|
E|-7-9-------------|-0-2-4-5--------|

G|----------|----------------|
D|----------|--------------2-|
A|------7---|--------2-4-5---|
E|-7--7---7-|-0-2-4-5--------|


G|-----------------|----------------|
D|-----------6-7-9-|--------------2-|
A|-----6-7-9-------|--------2-4-5---|
E|-7-9-------------|-0-2-4-5--------|

G|----------|
D|----------|
A|------7---|
E|-7--7---7-|
_________________________________________________________

FIN





Calificar esta versión:
Aviso: Este fichero es trabajo propio de su transcriptor y representa su interpretación personal de la canción. El material contenido en esta página es para exclusivo uso privado, por lo que se prohibe su reproducción o retransmisión, así como su uso para fines comerciales.