The Man Who Sold The World, Nirvana (bajo) (ver 2)

Autor: Javier1996 | 49239 visualizaciones



Ola amigos hoy les aporto las tabs de esta gran cancion de nirvana

javi_lopez_@live.com.mx por cualquier duda

Este video puede guiarlos por si se atoran:
https://www.youtube.com/watch?v=OZLqTPvUQgo

Buena vibra...

Intro

G ------------------------------------------------------
D ---3---------------------------------------------------
A ------------3-2-2-2--------1-2-2-2---2-1-0-4-----------
E --------------------2--2-2---------2-------------------

We passed upon the stair...

G -----------------------------------------------------------
D --------------------------------6------------6-0-----------
A ------6------------6-0------4-4---4-4-4-4--4-----6---------
E --4-4---4-4-4-4--4------6-7-------------------------5-4-----

G -----------------------------4------------4----------------------------
D -------------------6-5-4-2-2---2-2-2-2--2-----4---------4------------4--
A ----6------------6------------------------------0-4-2-2---2-2-2-2--2----
E --4---4-4-4-4--4--------------------------------------------------------

G -----------------------------------------------------------
D ----------------------------------6------------6------------
A ------------6----------------4--4---4-4-4-4--4----4-4-------
E -7-6-5-4--4---4-4-4---4---4--------------------------------

Coro
Oh no,not me....
G ------------2-3-5-------------2-3-5-------------2-3-5----------------------
D ------2-3-5-------------2-3-5-------------2-3-5-----------------0-2-3------
A --3-5---------------3-5---------------3-5------------------0-1-3---------
E -------------------------------------------------------1-3-----------------

G ------------------------------------------2-3-5----------------------------
D ---------3---------------0-2-3------2-3-5-------------------0-2-3-------3--
A ---4---4---4-------0-1-3--------3-5-------------------0-1-3--------4--4--4-
E ----------------1-3-------------------------------1-3----------------------

Se repite el intro

G ------------------------------------------------------
D ------------------------------------------------------
A ------------3-2-2-2--------1-2-2-2---2-1-0-4-----------
E --------------------2--2-2---------2-------------------

I laughed and shook his hand...
--------------------------------6------------6-0-----------
A ------6------------6-0------4-4---4-4-4-4--4-----6---------
E --4-4---4-4-4-4--4------6-7-------------------------5-4-----

G -----------------------------4------------4----------------------------
D -------------------6-5-4-2-2---2-2-2-2--2-----4---------4------------4--
A ----6------------6------------------------------0-4-2-2---2-2-2-2--2----
E --4---4-4-4-4--4--------------------------------------------------------

G -----------------------------------------------------------
D ----------------------------------6------------6------------
A ------------6----------------4--4---4-4-4-4--4----4-4-------
E -7-6-5-4--4---4-4-4---4---4--------------------------------

Coro

Who knows? not me...
G ------------2-3-5-------------2-3-5-------------2-3-5----------------------
D ------2-3-5-------------2-3-5-------------2-3-5-----------------0-2-3------
A --3-5---------------3-5---------------3-5------------------0-1-3---------
E -------------------------------------------------------1-3-----------------

G ------------------------------------------2-3-5----------------------------
D ---------3---------------0-2-3------2-3-5-------------------0-2-3-------3--
A ---4---4---4-------0-1-3--------3-5-------------------0-1-3--------4--4--4-
E ----------------1-3-------------------------------1-3----------------------

Oh no,not me...

G ---------------------2-3-5---------------------
D ---------------2-3-5-------------------0-2-3--
A -----------3-5------------------0-1-3---------
E --------------------------1-3-----------------

G ------------------------------------------2-3-5----------------------------
D ---------3---------------0-2-3------2-3-5-------------------0-2-3-------3--
A ---4---4---4-------0-1-3--------3-5-------------------0-1-3--------4--4--4-
E ----------------1-3-------------------------------1-3----------------------

Solo de guitarra

G -----------------------------------------------------------------------
D -----------------------------------------------------------------------
A ------------3-2-2-2--------1-2-2-2---2-1-0-3-3-3----------3-3-3---------
E --------------------2--2-2---------2-------------3--3-3-2-------3--3-3--

G -----------------------------------------------------------
D -----------------------------------6------------6-----------
A --------6------------6-0-----4--4----4-4-4-4--4---4-4-4-----
E -4-4--4---4-4-4-4--4-----6-7--------------------------------

G -----------------------------------------------------------------------
D -----------------------------------------------------------------------
A ------------3-2-2-2--------1-2-2-2---2-1-0-3-3-3----------3-3-3---------
E --------------------2--2-2---------2-------------3--3-3-2-------3--3-3--

G -----------------------------------------------------------
D -----------------------------------6------------6-----------
A --------6------------6-0-----4--4----4-4-4-4--4---4-4-4-----
E -4-4--4---4-4-4-4--4-----6-7--------------------------------

G -----------------------------------------------------------------------
D -----------------------------------------------------------------------
A ------------3-2-2-2--------1-2-2-2---2-1-0-3-3-3----------3-3-3---------
E --------------------2--2-2---------2-------------3--3-3-2-------3--3-3--

G -------------------------------------------------------------
D -----------------------------------6------------6------------
A --------6------------6-0-----4--4----4-4-4-4--4----------7---
E -4-4--4---4-4-4-4--4-----6-7----------------------5-5-6------





Calificar esta versión:
Aviso: Este fichero es trabajo propio de su transcriptor y representa su interpretación personal de la canción. El material contenido en esta página es para exclusivo uso privado, por lo que se prohibe su reproducción o retransmisión, así como su uso para fines comerciales.