The Man Who Sold The World, Nirvana (tablatura) (ver 3)

Autor: chch | 19104 visualizaciones



Rate this tablature!  	 	 	 	 	 	

TUNING: 

Tune down 1/2 step

INTRO
e----------------------------------------------------------------------------
b----------------------------------------------------------------------------
g--2-2-2-0--2^3^2-0--2-2-2-0--2^3^2-0--2-2-2-0--2^3^2-0--2-2-2-0--2^3^2-0----
d----------------------------------------------------------------------------
a----------------------------------------------------------------------------
e----------------------------------------------------------------------------

Guitar 2
..F....................................Dm
e----------------------------------------------------------------------------
b----------------------------------------------------------------------------
g--2-2-2-0--2^3^2-0--2-2-2-0--2^3^2-0--2-------------------------------------
d----------------------------------------------------------------------------
a----------------------------------------------------------------------------
e----------------------------------------------------------------------------

here's how you play the following chords:
...A.......Dm......F.......C.......C5

e--0-------1-------1---------------------------------------------------------
b--2-------3-------1-------1-------------------------------------------------
g--2-------2-------2-------0-------5-----------------------------------------
d--2-------0-------3-------2-------5-----------------------------------------
a--0---------------3-------3-------3-----------------------------------------
e------------------1---------------------------------------------------------

Play the following chords in the brackets

We passed upon the stairs (A)           
Spoken walls and wells (Dm)
Although I wasn't there (A)   
He said i was his friend (F)                  
Which came as a surprise (C)
I spoke into his (A) eyes -- I thought you died alone (Dm)
A long long time ago (C5)

Both guitars play C5 until Kurt says "Oh no", then play

Guitar 1
..C5........................F...............................C#

Guitar 2
e----------------------------------------------------------------------------
b----------------------------------------------------------------------------
g-----------------2--3--5----------------------------------------------------
d--------2--3--5---------------------------0--2--3---------------------------
a--3--5---------------------------0--1--3-------------------------3----------
e---------------------------1--3----------------------------4---4---4--------

...F........................C5........................F
e----------------------------------------------------------------------------
b----------------------------------------------------------------------------
g------------------------------------------2--3--5---------------------------
d----------------0--2--3----------2--3--5----------------------------0--2--3-
a--------0--1--3------------3--5----------------------------0--1--3----------
e--1--3-----------------------------------------------1--3-------------------

then, both guitars
e----------------------------------------------------------------------------
b--6---x--6--6--6------------------------------------------------------------
g--6---x--6--6--6------------------------------------------------------------
d--6---x--6--6--6------------------------------------------------------------
a--4---x--4--4--4------------------------------------------------------------
e----------------------------------------------------------------------------

SOLO
...Dm.........................A - guitar 2 plays those while guitar 1 plays:

e----------------------------------------------------------------------------
b----------------------------------------------------------------------------
g--2-2-2-0--2^3^2-0--2-2-2-0--2/8/9/10--9(10)9--9--(9)--(9)--(9)-----------
d----------------------------------------------------------------------------
a----------------------------------------------------------------------------
e----------------------------------------------------------------------------

then
...Dm............................F - guitar 2 plays those while one plays:

e----------------------------------------------------------------------------
b----------------------------------------------------------------------------
g--2-2-2-0--2^3^2-0--2-2-2-0--2--4/10--10--10-10-10--10--10--10-10--10-109--
d----------------------------------------------------------------------------
a----------------------------------------------------------------------------
e----------------------------------------------------------------------------
  
...Dm.......................A

e----------------------------------------------------------------------------
b----------------------------------------------------------------------------
g--97-7--7--7--7-7--7-7--7/9-9-9--9-9-9--9-9--9----------------------------
d----------------------------------------------------------------------------
a----------------------------------------------------------------------------
e----------------------------------------------------------------------------

play that 2 times, then
..Dm...................................F

e----------------------------------------------------------------------------
b----------------------------------------------------------------------------
g--2-2-2-0--2^3^2-0--2-2-2-0--2^3^2-0--2-------------------------------------
d----------------------------------------------------------------------------
a----------------------------------------------------------------------------
e----------------------------------------------------------------------------
	





Calificar esta versión:
Aviso: Este fichero es trabajo propio de su transcriptor y representa su interpretación personal de la canción. El material contenido en esta página es para exclusivo uso privado, por lo que se prohibe su reproducción o retransmisión, así como su uso para fines comerciales.