The Man Who Sold The World, Nirvana (acordes) (ver 4)

Autor: Glenncho05 | 26901 visualizaciones

aasosbbccsosdsosdmffsosgsos


INTRO:
D# G# C# F# A# D#


e|-------------------| x6
B|-------------------|                    
G|--2-2-2-0--2h3p2-0-|   
D|-------------------|
A|-------------------|
E|-------------------|


                    A                        Dm
We passed upon the stairs, Spoken walls and wells
                  A                        F
Although I wasn´t there, He said I was his friend
                    C                        A 
Which came as so surprised, I spoke into his eyes
                     Dm                        C
I thought you died alone, A long, long time ago



ACOMPAÑA CORO:[escala de C]
e|-------------------|
B|-------------------|                    
G|------------2-4-5--| 
D|------2-3-5--------|
A|--3-5--------------|
E|-------------------|




CORO:
               F
Who knows, not me
  Bb                F
I never lost control
          C       F
You're face, to face
         Bb               A 
With the man who sold the world



e|-------------------| x3
B|-------------------|                    
G|--2-2-2-0--2h3p2-0-| 
D|-------------------|
A|-------------------|
E|-------------------|



                        A                       Dm
I laughed and shook his hand, Made my way back home
                         A                          F
I searched from farther land, Years and years I roamed
                      C                        A 
I gazed all gazers there, We walked a million hills
                  Dm                        C
I must have died alone, A long, long time ago

 


CORO....



e|-------------------| x3
B|-------------------|                    
G|--2-2-2-0--2h3p2-0-| 
D|-------------------|
A|-------------------|
E|-------------------|



CORO....



e|-------------------| x4
B|-------------------|                    
G|--2-2-2-0--2h3p2-0-| 
D|-------------------|
A|-------------------|
E|-------------------|




SOLO:
e|-------------------------------------------------|
B|-------------------------------------------------|
G|-/9-9-9-9-9-9--2-2-2-0--2h3p2-0--2-2-2-0-2h3p2-0-|
D|-------------------------------------------------|
A|-------------------------------------------------|
E|-------------------------------------------------|


e|--------------------------------------------------
B|--------------------------------------------------
G|-/10-10-10-10-10-10-9-7-7-7-7-7-7-/9-9-9-9-9-9?---
D|--------------------------------------------------
A|--------------------------------------------------
E|--------------------------------------------------
                                                          

e|---------------------------------| x2
B|---------------------------------|
G|2-2-2-0-2h3p2-0-2-2-2-0--2h3p2-0-|
D|---------------------------------|
A|---------------------------------|
E|---------------------------------|





Calificar esta versión:
Aviso: Este fichero es trabajo propio de su transcriptor y representa su interpretación personal de la canción. El material contenido en esta página es para exclusivo uso privado, por lo que se prohibe su reproducción o retransmisión, así como su uso para fines comerciales.