The Man Who Sold The World, Nirvana (tablatura)

Autor: daniel24 | 38651 visualizaciones







este es el solo del intro y casi toda la cancion
E|--------------------| E|--------------------|  
B|--------------------| B|--------------------| 
G|--2-2-2-0--2h3p2-0--| G|--2-2-2-0--2h3p2-0--|  
D|--------------------| D|--3-3-3-3--3-3-3-3--| 
A|--------------------| A|--------------------| 
E|--------------------| E|--------------------| 

este es el solo del final 

E|--------------------------------------------------------
B|--------------------------------------------------------
G|--2-2-2-0--2h3p2-0--2-2-2-0--2h3p2-0--/9-9-9-9-9-9-9-9--
D|--------------------------------------------------------
A|--------------------------------------------------------
E|--------------------------------------------------------

E|-------------------------------------------------------
B|-------------------------------------------------------
G|--2-2-2-0--2h3p2-0--2-2-2-0--2h3p2-0-/10-10-10-10-10--
D|-------------------------------------------------------
A|-------------------------------------------------------
E|-------------------------------------------------------

E|-------------------------------------------------------
B|-------------------------------------------------------
G|-9-7-7-7-7-7-7-/9-9-9-9-9-2-2-2-0-2h3p2-0-/10-10-10-
D|-------------------------------------------------------
A|-------------------------------------------------------
E|-------------------------------------------------------

E|-------------------------------------------------------
B|-------------------------------------------------------
G|-10-10-9-7-7-7-7-7-7-/9-9-9-9-9-2-2-2-0-2h3p2-0--2--
D|-------------------------------------------------------
A|-------------------------------------------------------
E|-------------------------------------------------------





Calificar esta versión:
Aviso: Este fichero es trabajo propio de su transcriptor y representa su interpretación personal de la canción. El material contenido en esta página es para exclusivo uso privado, por lo que se prohibe su reproducción o retransmisión, así como su uso para fines comerciales.