The Man Who Sold The World, Nirvana (tablatura) (ver 2)

Autor: alan alberto | 27140 visualizaciones



world – Nirvana

A= Downstroke, with Pick
V= Upstroke, with Pick
/= Slide up
\= Slide down


1st Guitar:

Intro (with overdrive):
E|---------------------|---------------------|\
H|---------------------|---------------------| \
G|-2-2-2-0^(0)-2^3^2-0-|-2-2-2-0^(0)-2^3^2-0-|  \  (two
D|---------------------|---------------------|  /  times)
A|---------------------|---------------------| /
E|---------------------|---------------------|/

E|---------------------|---------------------|---------------------|
H|---------------------|---------------------|---------------------|
G|-2-2-2-0^(0)-2^3^2-0-|-2-2-2-0^(0)-2^3^2-0-|-2(let ring)---------|
D|---------------------|---------------------|---------------------|
A|---------------------|---------------------|---------------------|
E|---------------------|---------------------|---------------------|

Chorus:
E|-----------------|-----------------|-----------------|
H|-----------------|-----------------|-----------------|
G|-----------2-3-5-|-----------------|-----------------|
D|-----2-3-5-------|-----------0-2-3-|---------3-------|
A|-3-5-------------|-----0-1-3-------|-4-----4-----4---|
E|-----------------|-1-3-------------|-----------------|

E|-----------------|-----------------|-----------------|-1---1-1^(1)-1-1---|
H|-----------------|-----------------|-----------------|-2---2-2^(2)-2-2-0-|
G|-----------------|-----------2-3-5-|-----------------|-1---1-1^(1)-1-1-0-|
D|-----------0-2-3-|-----2-3-5-------|-----------0-2-3-|-3---3-3^(3)-3-3---|
A|-----0-1-3-------|-3-5-------------|-----0-1-3-------|-4---4-4^(4)-4-4---|
E|-1-3-------------|-----------------|-1-3-------------|-------------------|

Bridge:
E|---------------------|---------------------|---------------------|
H|-2---2---------------|---------------------|---------------------|
G|-2-----0^(0)-2^3^2-0-|-2-2-2-0^(0)-2^3^2-0-|-2-2-2-0^(0)-2^3^2-0-|
D|---------------------|---------------------|---------------------|
A|---------------------|---------------------|---------------------|
E|---------------------|---------------------|---------------------|

E|---------------------|---------------------|---------------------|----|----|
H|---------------------|---------------------|---------------------|----|----|
G|-2-2-2-0^(0)-2^3^2-0-|-2-2-2-0^(0)-2^3^2-0-|-2-2-2-0^(0)-2^3^2-0-|-2(let ring)
D|---------------------|---------------------|---------------------|----|----|
A|---------------------|---------------------|---------------------|----|----|
E|---------------------|---------------------|---------------------|----|----|

Chorus:
E|-----------------|-----------------|-----------------|
H|-----------------|-----------------|-----------------|
G|-----------2-3-5-|-----------------|-----------------|
D|-----2-3-5-------|-----------0-2-3-|---------3-------|
A|-3-5-------------|-----0-1-3-------|-4-----4-----4---|
E|-----------------|-1-3-------------|-----------------|



E|-----------------|-----------------|-----------------|-1---1-1^(1)-1-1---|
H|-----------------|-----------------|-----------------|-2---2-2^(2)-2-2-0-|
G|-----------------|-----------2-3-5-|-----------------|-1---1-1^(1)-1-1-0-|
D|-----------0-2-3-|-----2-3-5-------|-----------0-2-3-|-3---3-3^(3)-3-3---|
A|-----0-1-3-------|-3-5-------------|-----0-1-3-------|-4---4-4^(4)-4-4---|
E|-1-3-------------|-----------------|-1-3-------------|-------------------|

Bridge:
E|---------------------|---------------------|---------------------|-----------------|
H|-2---2---------------|---------------------|---------------------|-----------------|
G|-2-----0^(0)-2^3^2-0-|-2-2-2-0^(0)-2^3^2-0-|-2-2-2-0^(0)-2^3^2-0-|-2-2-2-0-0-0-2---|
D|---------------------|---------------------|---------------------|-----------------|
A|---------------------|---------------------|---------------------|-----------------|
E|---------------------|---------------------|---------------------|-----------------|

Chorus:
E|-----------------|-----------------|-----------------|
H|-----------------|-----------------|-----------------|
G|-----------2-3-5-|-----------------|-----------------|
D|-----2-3-5-------|-----------0-2-3-|---------3-------|
A|-3-5-------------|-----0-1-3-------|-4-----4-----4---|
E|-----------------|-1-3-------------|-----------------|

E|-----------------|-----------------|-----------------|-1---1-1^(1)-1-1---|
H|-----------------|-----------------|-----------------|-2---2-2^(2)-2-2-0-|
G|-----------------|-----------2-3-5-|-----------------|-1---1-1^(1)-1-1-0-|
D|-----------0-2-3-|-----2-3-5-------|-----------0-2-3-|-3---3-3^(3)-3-3---|
A|-----0-1-3-------|-3-5-------------|-----0-1-3-------|-4---4-4^(4)-4-4---|
E|-1-3-------------|-----------------|-1-3-------------|-------------------|

Solo & End:
E|---------------------|---------------------|---------------------|
H|-2---2---------------|---------------------|---------------------|
G|-2---2-0^(0)-2^3^2-0-|-2-2-2-0^(0)-2^3^2-0-|-2-2-2-0^(0)-2^3^2-0-|
D|---------------------|---------------------|---------------------|
A|---------------------|---------------------|---------------------|
E|---------------------|---------------------|---------------------|

E|---------------------|---------------------|---------------------|
H|---------------------|---------------------|---------------------|
G|-2-2-2-0^(0)-2^3^2-0-|-2-2-2-0^(0)-2^3^2-0-|-2-2-2-0^(0)-2^3^2-0-|
D|---------------------|---------------------|---------------------|
A|---------------------|---------------------|---------------------|
E|---------------------|---------------------|---------------------|

E|---------------------|---------------------|---------------------|
H|---------------------|---------------------|---------------------|
G|-2-2-2-0^(0)-2^3^2-0-|-2-2-2-0^(0)-(2)-2///|/8///10^^^(10)\\\9---|
D|---------------------|---------------------|---------------------|
A|---------------------|---------------------|---------------------|
E|---------------------|---------------------|---------------------|

E|---------------------|-----------------|-------------------------|
H|---------------------|-----------------|-------------------------|
A|-2-2-2-0^(0)-2^3^2-0-|-2-2-2-0-0-2-2///|/10---10-10^(10)-10-10---|
D|---------------------|-----------------|-------------------------|
A|---------------------|-----------------|-------------------------|
E|---------------------|-----------------|-------------------------|





E|-------------------------|-------------------|-------------------|
H|-------------------------|-------------------|-------------------|
G|-10---10-10^(10)-10-10\9-|-9\\\7-7^(7)-7-7---|-7---7-7^(7)-7-7---|
D|-------------------------|-------------------|-------------------|
A|-------------------------|-------------------|-------------------|
E|-------------------------|-------------------|-------------------|

E|-------------------|-------------------|---------------------|
H|-------------------|-------------------|---------------------|
G|-7/9-9-9^(9)-9-9-9-|-9---9-9^(9)-9-9\\\|\2-2-2-0^(0)-2^3^2-0-|
D|-------------------|-------------------|---------------------|
A|-------------------|-------------------|---------------------|
E|-------------------|-------------------|---------------------|

E|-----------------|-------------------------|-------------------------|
H|-----------------|-------------------------|-------------------------|
G|-2-2-2-0-0-2-2///|/10---10-10^(10)-10-10---|-10---10-10^(10)-10-10\9-|
D|-----------------|-------------------------|-------------------------|
A|-----------------|-------------------------|-------------------------|
E|-----------------|-------------------------|-------------------------|

E|-------------------|-------------------|-------------------|
H|-------------------|-------------------|-------------------|
G|-9\\\7-7^(7)-7-7---|-7---7-7^(7)-7-7/9-|-9---9-9^(9)-9-9-9-|
D|-------------------|-------------------|-------------------|
A|-------------------|-------------------|-------------------|
E|-------------------|-------------------|-------------------|

E|-------------------|---------------------|---------------------|----|
H|-------------------|---------------------|---------------------|----|
G|-9---9-9^(9)-9-9\\\|\2-2-2-0^(0)-2^3^2-0-|-2-2-2-0^(0)-2^3^2-0-|-2(let ring)
D|-------------------|---------------------|---------------------|----|
A|-------------------|---------------------|---------------------|----|
E|-------------------|---------------------|---------------------|----|





Comentarios del colaborador: PARA LA BANDA DE LOS CEANI O LOS OAXACOS MAN EL OLAF EL ZAGUE LALO CHIPI ETC....

Calificar esta versión:
Aviso: Este fichero es trabajo propio de su transcriptor y representa su interpretación personal de la canción. El material contenido en esta página es para exclusivo uso privado, por lo que se prohibe su reproducción o retransmisión, así como su uso para fines comerciales.