All Apologies, Nirvana (tablatura) (ver 7)

Autor: grungeKurt | 18052 visualizaciones

INTRO ... 

Eb ----------------------|----------------------|----------------------|-
Bb ----------------------|----------------------|----------------------|-
Gb ----------------------|----------------------|----------------------|-
Db ----------------------|----------12-12-9-10--|----------------------|-
Ab ---9-10-9-12-12-9-10--|---9-10-9-------------|---9-10-9-12-12-9-10--|-
Db -0--------------------|-0--------------------|-0--------------------|-


Eb ---------------------|-
Bb ---------------------|-
Gb ----------11-11-9----|-
Db ------------------12-|-
Ab ---9-10-9------------|-
Db -0-------------------|-

Ese es el riff principal .. 


Eb ----------------------------------------|- 
Bb ----------------------------------------|- 
Gb ----------------------------------------|- 
Db -5-5-5 - 0-5-5-5 - 0-5-5-5 - 0-5-5-5 - 0-7 - | - 
Ab -5-5-5 - 0-5-5-5 - 0-5-5-5 - 0-5-5-5 - 0-7 - | - 
Db -5-5-5 - 0-5-5-5 - 0-5-5-5 - 0-5-5-5 - 0-7 - | 

A continuación, el Coro...

Eb ----------------------------------------|- 
Bb ----------------------------------------|- 
Gb -------------------------------------- 2 - | - 
Db -5-5-5 - 0-5-5-5 - 0-5-5-5 - 0-5-5-5 - 0-2 - | - 
Ab -5-5-5 - 0-5-5-5 - 0-5-5-5 - 0-5-5-5 - 0 - 0 - | - 
Db -5-5-5 - 0-5-5-5 - 0-5-5-5 - 0-5-5-5 - 0 - 0 - | - 


 In the sun ...                        Married, burried ....                
********************

Verse 1:
What else should I be
All apologies
What else should I say
Everyone is gay
What else could I write
I don't have the right
What else should I be
All apologies

In the sun
In the sun I feed as one
In the sun
In the sun

married
buried

Verse 2:
I wish I was like you
Easily amused
Find my nest of salt
Everything is my fault
I'll take all the blame
Aqur scafoam shame
Sunburn with freezeburn
Choking on the ashes of her enemy

Ending:

Oh no is all we are (?)
All in all we all are

Comentarios del colaborador: una cancion que es dificil de tocar pero buena para escuchaar :') .. GRACIAS!

Calificar esta versión:
Aviso: Este fichero es trabajo propio de su transcriptor y representa su interpretación personal de la canción. El material contenido en esta página es para exclusivo uso privado, por lo que se prohibe su reproducción o retransmisión, así como su uso para fines comerciales.
Más versiones de All Apologies, Nirvana
All Apologies
acordes
All Apologies (ver 2)
acordes
All Apologies (ver 3)
acordes
All Apologies
tablatura
All Apologies
tablatura
All Apologies (ver 2)
tablatura
All Apologies (ver 3)
tablatura
All Apologies (ver 4)
tablatura
All Apologies (ver 5)
tablatura
All Apologies (ver 6)
tablatura
All Apologies (ver 7)
tablatura
All Apologies
bateria
Descubre más canciones de Nirvana