All Apologies, Nirvana (tablatura) (ver 3)

Autor: xxblackxpinkxx | 38903 visualizaciones

                     "All Apologies", NIRVANA
-------------------------------------------------------------------------------
·Transcripto por: Sebastián Ar.
·Buenos Aires, Argentina, 2009
·Email MSN: playing.the.angel_@hotmail.com
·Sí, sacado de oído.
______________________________________________
+Álbum: "All Apologies [EP]" (1993)
+Afinación: EADGBe Standard

INTRO:
e|---------------------------------------------------------------------------|
B|---------------------------------------------------------------------------|
G|--------------------------/6-6-4-3------------------------------------------
D|--/3-3-4-3-6-6-4-3--3-4-3---------------------------------------------------
A|---------------------------------------------------------------------------|
E|---------------------------------------------------------------------------|

e|---------------------------------------------------------------------------|
B|---------------------------/6-6-4-------------------------------------------
G|----------------------------------6-----------------------------------------|
D|--/3-3-4-3-6-6-4-3--3-4-3---------------------------------------------------
A|---------------------------------------------------------------------------|
E|---------------------------------------------------------------------------|


VERSOS:
e|---------------------------------------------------------------------------|
B|---------------------------------------------------------------------------|
G|--------------------------/6-6-4-3------------------------------------------
D|--/3-3-4-3-6-6-4-3--3-4-3---------------------------------------------------
A|---------------------------------------------------------------------------|
E|---------------------------------------------------------------------------|

ESTRIBILLO:
e|------
B|------
G|------
D|444444
A|444444
E|222022
[Repite mucho hasta "Marry, burry..."]


e|---------------------
B|---------------------
G|---------------------
D|-6---------6---------
A|-6---------6---------
E|-4---------4---------
  MARRY!    BURRY!

>Repite VERSOS

>Reptie ESTRIBILLO

e|---------------------
B|---------------------
G|---------------------
D|-6---------6---------
A|-6---------6---------
E|-4---------4---------
  MARRY!    BURRY!      (x2 veces)

>Repite INTRO hasta el final de la canción, y se escucha esto como guitarra segunda:
e|------
B|------
G|------
D|444444
A|444444
E|222022                     "All Apologies", NIRVANA
-------------------------------------------------------------------------------
·Transcripto por: Sebastián Ar.
·Buenos Aires, Argentina, 2009
·Email MSN: playing.the.angel_@hotmail.com
·Sí, sacado de oído.
______________________________________________
+Álbum: "All Apologies [EP]" (1993)
+Afinación: EADGBe Standard

INTRO:
e|---------------------------------------------------------------------------|
B|---------------------------------------------------------------------------|
G|--------------------------/6-6-4-3------------------------------------------
D|--/3-3-4-3-6-6-4-3--3-4-3---------------------------------------------------
A|---------------------------------------------------------------------------|
E|---------------------------------------------------------------------------|

e|---------------------------------------------------------------------------|
B|---------------------------/6-6-4-------------------------------------------
G|----------------------------------6-----------------------------------------|
D|--/3-3-4-3-6-6-4-3--3-4-3---------------------------------------------------
A|---------------------------------------------------------------------------|
E|---------------------------------------------------------------------------|


VERSOS:
e|---------------------------------------------------------------------------|
B|---------------------------------------------------------------------------|
G|--------------------------/6-6-4-3------------------------------------------
D|--/3-3-4-3-6-6-4-3--3-4-3---------------------------------------------------
A|---------------------------------------------------------------------------|
E|---------------------------------------------------------------------------|

ESTRIBILLO:
e|------
B|------
G|------
D|444444
A|444444
E|222022
[Repite mucho hasta "Marry, burry..."]


e|---------------------
B|---------------------
G|---------------------
D|-6---------6---------
A|-6---------6---------
E|-4---------4---------
  MARRY!    BURRY!

>Repite VERSOS

>Reptie ESTRIBILLO

e|---------------------
B|---------------------
G|---------------------
D|-6---------6---------
A|-6---------6---------
E|-4---------4---------
  MARRY!    BURRY!      (x2 veces)

>Repite INTRO hasta el final de la canción, y se escucha esto como guitarra segunda:
e|------
B|------
G|------
D|444444
A|444444
E|222022
Calificar esta versión:
Aviso: Este fichero es trabajo propio de su transcriptor y representa su interpretación personal de la canción. El material contenido en esta página es para exclusivo uso privado, por lo que se prohibe su reproducción o retransmisión, así como su uso para fines comerciales.
Más versiones de All Apologies, Nirvana
All Apologies
acordes
All Apologies (ver 2)
acordes
All Apologies (ver 3)
acordes
All Apologies
tablatura
All Apologies
tablatura
All Apologies (ver 2)
tablatura
All Apologies (ver 3)
tablatura
All Apologies (ver 4)
tablatura
All Apologies (ver 5)
tablatura
All Apologies (ver 6)
tablatura
All Apologies (ver 7)
tablatura
All Apologies
bateria
Descubre más canciones de Nirvana