All Apologies, Nirvana (tablatura) (ver 2)

Autor: alklan | 29425 visualizaciones

Intro:

E-----------------------|-----------------------|
B-----------------------|-----------------------|
G-----------------------|-----------------------|
D-----------------------|------------12-12-10-9-|
A----9-10-9--12-12-10-9-|------10-9-------------|
E--0--------------------|--0-0------------------|

E-----------------------|-----------------------|
B-----------------------|-----------------------|
G-----------------------|------------12-12-10---|
D-----------------------|---------------------12|
A----9-10-9--12-12-10-9-|------10-9-------------|
E--0--------------------|--0-0------------------|

lo anterior se repite hasta que en el coro, se toca:

Guitarra1
E-----------------------------------------|
B-----------------------------------------|
G-----------------------------------------|
D--5-5-5--0-5-5-5--0-5-5-5--0-5-5-5--0--7-|
A--5-5-5--0-5-5-5--0-5-5-5--0-5-5-5--0--7-|
D--5-5-5--0-5-5-5--0-5-5-5--0-5-5-5--0--7-|

Guitarra2
E-----------------------------------------|
B-----------------------------------------|
G---------------------------------------2-|
D--5-5-5--0-5-5-5--0-5-5-5--0-5-5-5--0--2-|
A--5-5-5--0-5-5-5--0-5-5-5--0-5-5-5--0--0-|
D--5-5-5--0-5-5-5--0-5-5-5--0-5-5-5--0--0-|

Y cuando dice: "All in all is all we are * # * # * #" etc.

|----------------------------------|-----------------------------------|
|----------------------------------|-----------------------------------|
|----------------------------------|-----------------/6---6---4---3----|
|------3---4---3--/6---6---4---3---|------3---4---3--------------------|
|--4-------------------------------|--4--------------------------------|
|----------------------------------|-----------------------------------|

|----------------------------------|-----------------------------------|
|----------------------------------|-----------------/6---6---4---2----|
|----------------------------------|-----------------------------------|
|------3---4---3--/6---6---4---3---|------3---4---3--------------------|
|--4-------------------------------|--4--------------------------------|
|----------------------------------|-----------------------------------|
   
|----------------------------------|-----------------------------------|
|----------------------------------|-------------------/6---6----------|
|----------------------------------|-----------------------------------|
|------3---4---3--/6---6---4---3---|------3---4---3--------------------|
|--4-------------------------------|--4--------------------------------|
|----------------------------------|-----------------------------------|

               |-----|-----|-----|-----|   
               |-----|-----|-----|-----|      
               |-----|-----|-----|-----|           
con el chelo:  |--9--|--6--|--9--|--11-|*2|-9--|-6--|-3--|----| 
               |-----|-----|-----|-----|  |----|----|----|-4--|
               |-----|-----|-----|-----| 


Y teminè porfavor votnme y DEJEN SUS COMENTARIOS!!!


         






Calificar esta versión:
Aviso: Este fichero es trabajo propio de su transcriptor y representa su interpretación personal de la canción. El material contenido en esta página es para exclusivo uso privado, por lo que se prohibe su reproducción o retransmisión, así como su uso para fines comerciales.
Más versiones de All Apologies, Nirvana
All Apologies
acordes
All Apologies (ver 2)
acordes
All Apologies (ver 3)
acordes
All Apologies
tablatura
All Apologies
tablatura
All Apologies (ver 2)
tablatura
All Apologies (ver 3)
tablatura
All Apologies (ver 4)
tablatura
All Apologies (ver 5)
tablatura
All Apologies (ver 6)
tablatura
All Apologies (ver 7)
tablatura
All Apologies
bateria
Descubre más canciones de Nirvana