All Apologies, Nirvana (tablatura) (ver 5)

Autor: cami.beaTle.rock | 22767 visualizaciones

Db Ab Db Gb Bb Eb

Intro

|------------------------|------------------------|
|------------------------|------------------------|
|------------------------|------------------------|
|------------------------|----------10s12-12-10-9-|
|-9-9-10-9-10s12-12-10-9-|-----10-9---------------|
|-0----------------------|-0-0----0---------------|

|------------------------|----------------------|
|------------------------|----------------------|
|------------------------|----------11-11-9-----|
|------------------------|--------------0-0-12--|
|---9-10---10s12-12-10-9-|---9-10-9-------------|
|-0------0-----0---------|-0------0-------------|

Bridge

|-----------------|---------------------|
|-----------------|---------------------|
|-----------------|---------------------|
|-----5---5-5-x-5-|-(5)-5-5---5-5-x-5-5-|
|-----5---5-5-x-5-|-(5)-5-5---5-5-x-5-5-|
|-5---5---5-5-x-5-|-(5)-5-5---5-5-x-5-5-|

|------------|----------|--------------||
|------------|----------|--------------||
|-(2)--------|-2--------|-(2)----------||
|-(2)--------|-2--------|-(2)----------||
|-(0)--------|-0--------|-(0)------0---||
|------------|----------|----------0---||

Comentarios del colaborador: guitar tutee

Calificar esta versión:
Aviso: Este fichero es trabajo propio de su transcriptor y representa su interpretación personal de la canción. El material contenido en esta página es para exclusivo uso privado, por lo que se prohibe su reproducción o retransmisión, así como su uso para fines comerciales.
Más versiones de All Apologies, Nirvana
All Apologies
acordes
All Apologies (ver 2)
acordes
All Apologies (ver 3)
acordes
All Apologies
tablatura
All Apologies
tablatura
All Apologies (ver 2)
tablatura
All Apologies (ver 3)
tablatura
All Apologies (ver 4)
tablatura
All Apologies (ver 5)
tablatura
All Apologies (ver 6)
tablatura
All Apologies (ver 7)
tablatura
All Apologies
bateria
Descubre más canciones de Nirvana