All Apologies, Nirvana (tablatura) (ver 6)

Autor: mc guitar | 42779 visualizaciones

e|----------------------------------|
B|----------------------------------|
G|------------------------7-7-6-4---|
D|-3-3-4-3-4/6-4-3--3-3-4-0-0-0-0---|
A|-0-0-0-0-0-0-0-0--0-0-0-----------|
E|----------------------------------|     

e|----------------------------------|
B|------------------------5-5-4-2---|
G|------------------------0-0-0-0---|
D|-3-3-4-3-4/6-4-3--3-3-4-----------|
A|-0-0-0-0-0-0-0-0--0-0-0-----------|
E|----------------------------------|

e|----------------------------------|
B|----------------------------------|
G|------------------------7-7-6-4---|
D|-3-3-4-3-4/6-4-3--3-3-4-0-0-0-0---|
A|-0-0-0-0-0-0-0-0--0-0-0-----------|
E|----------------------------------| 
What else should I be? All apologies 

e|----------------------------------|
B|------------------------5-5-4-2---|
G|------------------------0-0-0-0---|
D|-3-3-4-3-4/6-4-3--3-3-4-----------|
A|-0-0-0-0-0-0-0-0--0-0-0-----------|
E|----------------------------------|
What else should I say? Everyone is gay 

e|----------------------------------|
B|----------------------------------|
G|------------------------7-7-6-4---|
D|-3-3-4-3-4/6-4-3--3-3-4-0-0-0-0---|
A|-0-0-0-0-0-0-0-0--0-0-0-----------|
E|----------------------------------| 
What else should I write? Everything's my fault 

e|----------------------------------|
B|------------------------5-5-4-2---|
G|------------------------0-0-0-0---|
D|-3-3-4-3-4/6-4-3--3-3-4-----------|
A|-0-0-0-0-0-0-0-0--0-0-0-----------|
E|----------------------------------|
What else should I be? All apologies 

F#5
In the sun, in the sun I feel as one 
In the sun, in the sun 
    G#5
I'm married buried yeah, yeah, yeah, yeah! 


e|----------------------------------|
B|----------------------------------|
G|------------------------7-7-6-4---|
D|-3-3-4-3-4/6-4-3--3-3-4-0-0-0-0---|
A|-0-0-0-0-0-0-0-0--0-0-0-----------|
E|----------------------------------| 
I wish I was like you, easily mused 

e|----------------------------------|
B|------------------------5-5-4-2---|
G|------------------------0-0-0-0---|
D|-3-3-4-3-4/6-4-3--3-3-4-----------|
A|-0-0-0-0-0-0-0-0--0-0-0-----------|
E|----------------------------------|
Find my nest of salt, everything's my fault 

e|----------------------------------|
B|----------------------------------|
G|------------------------7-7-6-4---|
D|-3-3-4-3-4/6-4-3--3-3-4-0-0-0-0---|
A|-0-0-0-0-0-0-0-0--0-0-0-----------|
E|----------------------------------| 
I'll take all the blame, aqua seafon shame 

e|----------------------------------|
B|------------------------5-5-4-2---|
G|------------------------0-0-0-0---|
D|-3-3-4-3-4/6-4-3--3-3-4-----------|
A|-0-0-0-0-0-0-0-0--0-0-0-----------|
E|----------------------------------|
Sunburn with freezer burn 

e|----------------------------------|
B|----------------------------------|
G|------------------------7-7-6-4---|
D|-3-3-4-3-4/6-4-3--3-3-4-0-0-0-0---|
A|-0-0-0-0-0-0-0-0--0-0-0-----------|
E|----------------------------------|
Shocking on the ashes of her enemies 

F#5
In the sun, in the sun I feel as one 
In the sun, in the sun 
   G#5
I'm married buried yeah, yeah, yeah, yeah! 

e|----------------------------------|
B|----------------------------------|  
G|------------------------7-7-6-4---|
D|-3-3-4-3-4/6-4-3--3-3-4-0-0-0-0---|
A|-0-0-0-0-0-0-0-0--0-0-0-----------|    
E|----------------------------------|   
All in all is all we are

e|----------------------------------|
B|------------------------5-5-4-2---|
G|------------------------0-0-0-0---|
D|-3-3-4-3-4/6-4-3--3-3-4-----------|
A|-0-0-0-0-0-0-0-0--0-0-0-----------|
E|----------------------------------|
All in all is all we are

e|----------------------------------|
B|----------------------------------|  
G|------------------------7-7-6-4---|
D|-3-3-4-3-4/6-4-3--3-3-4-0-0-0-0---|
A|-0-0-0-0-0-0-0-0--0-0-0-----------|    
E|----------------------------------| 
All in all is all we are

C#5 
All in all is all we are
All in all is all we are
All in all is all we are
All in all is all we are

Espero que les sirva... esta muy facil
Calificar esta versión:
Aviso: Este fichero es trabajo propio de su transcriptor y representa su interpretación personal de la canción. El material contenido en esta página es para exclusivo uso privado, por lo que se prohibe su reproducción o retransmisión, así como su uso para fines comerciales.
Más versiones de All Apologies, Nirvana
All Apologies
acordes
All Apologies (ver 2)
acordes
All Apologies (ver 3)
acordes
All Apologies
tablatura
All Apologies
tablatura
All Apologies (ver 2)
tablatura
All Apologies (ver 3)
tablatura
All Apologies (ver 4)
tablatura
All Apologies (ver 5)
tablatura
All Apologies (ver 6)
tablatura
All Apologies (ver 7)
tablatura
All Apologies
bateria
Descubre más canciones de Nirvana