All Apologies, Nirvana (tablatura) (ver 4)

Autor: what the hell | 20190 visualizaciones

E --------------------------------
B --------------------------------
G ------------------------6-6-4-3-
D -3-4-3--6-6-4-3----3-4-3--------
A 4----------------4--------------
E --------------------------------

E --------------------------------
B ------------------------6-6-4-2-
G --------------------------------
D -3-4-3--6-6-4-3----3-4-3--------
A 4----------------4--------------
E --------------------------------

What else should I be? All apologies 
What else should I say? Everyone is gay 
What else should I write? I don't have the right 
What else should I be? All apologies 


F
In the sun, in the sun I feel as one 
In the sun, in the sun I'm married 
G
Buried 

I wish I was like you, easily amused 
Find my nest of salt, everything's my fault 
I'll take all the blame, aqua seafoam shame 
Sunburn with freezerburn, choking on the ashes of her enemy 

F
In the sun, in the sun I feel as one 
In the sun, in the sun I'm married 
G
Buried 
G
Married 
G
Buried
Calificar esta versión:
Aviso: Este fichero es trabajo propio de su transcriptor y representa su interpretación personal de la canción. El material contenido en esta página es para exclusivo uso privado, por lo que se prohibe su reproducción o retransmisión, así como su uso para fines comerciales.
Más versiones de All Apologies, Nirvana
All Apologies
acordes
All Apologies (ver 2)
acordes
All Apologies (ver 3)
acordes
All Apologies
tablatura
All Apologies
tablatura
All Apologies (ver 2)
tablatura
All Apologies (ver 3)
tablatura
All Apologies (ver 4)
tablatura
All Apologies (ver 5)
tablatura
All Apologies (ver 6)
tablatura
All Apologies (ver 7)
tablatura
All Apologies
bateria
Descubre más canciones de Nirvana