Bésame Mucho, Zoe (tablatura) (ver 2)

Autor: Anónimo | 29949 visualizaciones



Hey hey… aki esta la mega correcion de esta rolita…
Lleva muxos arreglos, y si ustedes se los incluyen
Se escuchara muuuuuy bien…
escuchen bien la rola… y cheken las notas
https://www.youtube.com/watch?v=CSELNSslBVk

Notas arreglos para la rola…

      *Am   /
E|---|---|---|
A|---|---|---| (
D|---|-3-|---|
G|---|---|-2-|
B|---|---|-1-| (
e|---|---|---|
            
      Am7   /
E|---|---|---|
A|---|---|---| (
D|---|-3-|---|
G|---|---|---|
B|---|---|-1-| (
e|---|---|---|
            
      E7    /
E|---|---|---|
A|---|-2-|---| (
D|---|---|---|
G|---|---|-1-|
B|-3-|---|---| (
e|---|---|---|
            
      *E    /
E|---|---|---|
A|---|-2-|---| (
D|---|---|---|
G|---|---|---|
B|-3-|---|---| (
e|---|---|---|
            

       Bajeo (x4)      /
E|---0---------7------0---|
A|-------7--5-----5-------| (
D|------------------------|
G|------------------------|
B|------------------------| (
e|------------------------|
                       

armonicos (dedos rosando las cuerdas)
         /
E|--------|
A|--------| (
D|--------|   [Armónicos]
G|---12---|
B|---12---| (
e|---12---|
         
   arreglos                                             /
E|--------------------------------------------------------------|
A|--------------------------------------------------------------| (
D|--------------------------------------------------------------|
G|--------------------------------------------------------------|
B|---0--------------0--------------1--------------1-------------| (
e|-----0-2-1-2-0------0-2-1-2-0------0-2-1-2-0------0-2-1-2-0---|
                                                        
Em              Am
Bésame, bésame mucho
        *Am             AM7
Como si fuera esta la noche
    B7     Em
la última vez

E     E7        Am
Bésame, bésame mucho
Em        *E         C
que tengo miedo a tenerte
    B7      Em
perderte después
Em              Am
Bésame, bésame mucho
        *Am             AM7    B7     Em
Como si fuera esta la noche la última vez
                    /
E|--------------------|
A|---2-1-2-3-4--------|(
D|-------------0-1-2--|
G|--------------------|
B|--------------------|(
e|--------------------|
                    
E     E7        Am
Bésame, bésame mucho
Em        *E         C
que tengo miedo a tenerte
    B7      Em
perderte después...

Am                 Em
Quiero tenerte muy cerca
               F# / F#7
mirarme en tus ojos
              B7
verte junto a mí
Am                  Em
Piensa que tal vez mañana
             F# / F#7
yo ya estaré lejos
             B7    Em
muy lejos de aquí

Em              Am
Bésame, bésame mucho
        *Am             AM7
Como si fuera esta la noche
    B7     Em
la última vez
                    /
E|--------------------|
A|---2-1-2-3-4--------|(
D|-------------0-1-2--|
G|--------------------|
B|--------------------|(
e|--------------------|
                    
E     E7        Am
Bésame, bésame mucho
Em        *E         C
que tengo miedo a tenerte
    B7      Em
perderte después...

]]]solo de guitarra[[[

+ =pausa breve...

Em                   Am                        B7    Em
                                                        /
E|--0-0-0-+-0-0-2-3----------------------------3-3--------------|
A|------------------2-0-0-+-0-0-0-2-2-2-3-3-3-3---0-2-----------| (
D|--------------------------------------------------------------|
G|--------------------------------------------------------------|
B|--------------------------------------------------------------| (
e|--------------------------------------------------------------|
                                                        
Em                  E    E7
                    /
E|--------------------|
A|---2-1-2-3-4--------|(
D|-------------0-1-2--|
G|--------------------|
B|--------------------|(
e|--------------------|
                    
Am
                    /
E|--------------------|
A|--------------------|(
D|------------2-------|
G|----------2---------|
B|--1-0-1-0-----------|(
e|--------------------|
                    
Em       *E     C     B7    Em
                             /
E|--0-2-3---3-0-3-2-0-2-0-+-0---|
A|--------2---------------------| (
D|------------------------------|
G|------------------------------|
B|------------------------------| (
e|------------------------------|
                             
                    /
E|--------------------|
A|---2-1-2-3-4--------|(
D|-------------0-1-2--|
G|--------------------|
B|--------------------|(
e|--------------------|
                    
E     E7        Am
Bésame, bésame mucho
Em        *E         C
que tengo miedo a tenerte
    B7                        Em
perderte.................. después...


///sta rolita, va dedikada a sàn ará...
ke tiene unos labios divinos…
k yo kiero besar…
bsame muxo, komo si fuera esta noxe la ultima vez
ke tengo miedo a tenerte y perderte despues--- XP…///





Calificar esta versión:
Aviso: Este fichero es trabajo propio de su transcriptor y representa su interpretación personal de la canción. El material contenido en esta página es para exclusivo uso privado, por lo que se prohibe su reproducción o retransmisión, así como su uso para fines comerciales.
Más versiones de Bésame Mucho, Zoe
Besame Mucho
acordes
Besame Mucho (ver 2)
acordes
Besame Mucho (ver 3)
acordes
Besame Mucho (ver 4)
acordes
Besame Mucho (ver 5)
acordes
Bésame Mucho
tablatura
Bésame Mucho (ver 2)
tablatura
Bésame Mucho
bajo
Descubre más canciones de Zoe