Besame Mucho, Zoe (acordes) (ver 5)

Autor: elRiff | 33484 visualizaciones

amb7cdoe7emem7la7mimsi7


Besame Mucho, versionado por Zoé


      Em                         Am
e|------0-3-2-3-0----0-3-2-3-0-|------0-3-2-3-0----0-3-2-3-0-|
B|---0-------------0-----------|---1-------------1-----------|
G|-----------------------------|-----------------------------|
D|-----------------------------|-----------------------------|x4
A|-----------------------------|-----------------------------|
E|-----------------------------|-----------------------------|


  El Bajo hace esto 

G|-------9---7-------7---------|
D|---------------9-------------|
A|--7--------------------------|
E|-----------------------------|

 
                        
Em              Am         
Besame, besame mucho..... 

   [Mim con el dedo indice en la 2da cuerda] 
Am      Mim        Do
como si fuera esta noche
   Si7      Em
la ultima vez.

E7              Am
Besame, besame mucho
Em        Em7       C      
Que tengo miedo a tenerte
     Si7       Em
y perderte después....



[Lo mismo]
Besame, besame mucho... 
Como si fuera esta noche la última vez.
Besame, besame mucho...
Que tengo miedo a tenerte y perderte después


Am               Em
Quiero tenerte muy cerca
              La7                B7
mirarte a los ojos verte junto a mi.
Am                 Em
Piensa que tal vez mañana
                  La7             B7   
yo ya estaré lejos muy lejos de ti...



y allí sigue la rola con los mismos acordes....



Este es el Mim Con do que les dije antes
-0-
-1-
-0-
-2-
-2-
-0-





Comentarios del colaborador: Bueno a mi parecer está mucho mejor que otras guías de acordes que encontré para esta canción; cualquier cosa escúchenla bien y hay se van pues..

Calificar esta versión:
Aviso: Este fichero es trabajo propio de su transcriptor y representa su interpretación personal de la canción. El material contenido en esta página es para exclusivo uso privado, por lo que se prohibe su reproducción o retransmisión, así como su uso para fines comerciales.
Más versiones de Besame Mucho, Zoe
Besame Mucho
acordes
Besame Mucho (ver 2)
acordes
Besame Mucho (ver 3)
acordes
Besame Mucho (ver 4)
acordes
Besame Mucho (ver 5)
acordes
Bésame Mucho
tablatura
Bésame Mucho (ver 2)
tablatura
Bésame Mucho
bajo
Descubre más canciones de Zoe