Bésame Mucho, Zoe (bajo)

Autor: Anónimo | 29440 visualizaciones



Esta Version la saque del Unpplugued

Intro.
G|--------------------------------------------------------
D|--------------------------------------------------------   (x7)
A|-----7-5----5------7-5----5------7-5----5------7-5----5-
E|--0-------7-----0-------7-----0-------7-----0-------7---

[Verso]

Besame                 beesame        muuuchooo          Como si fuera..
G|-----------------------------------------------------------------------
D|-------------------------------------7-5-7------7-5---5----------------
A|-----7-5----5------7-5-----5------0-------7---0-----7--------------2/7-
E|--0-------7-----0-------7----------------------------------5--3--2---0-

G|-----------------------
D|-----------------------
A|-7-5---5------7-5----5-
E|-----7-----0-------7---


                                  Todo el verso(x2)

Besame                 beesame        muuuchooo         Que tengo miedo..
G|-----------------------------------------------------------------------
D|-------------------------------------7-5-7------7-5---5----------------
A|-----7-5----5------7-5-----5------0-------7---0-----7-----7--5--3--2/7-
E|--0-------7-----0-------7--------------------------------------------0-

G|-----------------------
D|-----------------------
A|-7-5---5------7-5----5-
E|-----7-----0-------7---


[En la cancion chequen el ritmo en esta parte]
Quiero tenerte muy cerca..    muy lejos de ti..
G|--------------------------------------
D|--------------------------------------
A|---------------2--------------------2-
E|--5-----0---2---------5------0---2----

Se repite Intro
G|--------------------------------------------------------
D|--------------------------------------------------------   (x2)
A|-----7-5----5------7-5----5------7-5----5------7-5----5-
E|--0-------7-----0-------7-----0-------7-----0-------7---


Verso.

Besame                 beesame        muuuchooo          Como si fuera..
G|-----------------------------------------------------------------------
D|-------------------------------------7-5-7------7-5---5----------------
A|-----7-5----5------7-5-----5------0-------7---0-----7--------------2/7-
E|--0-------7-----0-------7----------------------------------5--3--2---0-

G|-----------------------
D|-----------------------
A|-7-5---5------7-5----5-
E|-----7-----0-------7---

Besame                 beesame        muuuchooo         Que tengo miedo..
G|-----------------------------------------------------------------------
D|-------------------------------------7-5-7------7-5---5----------------
A|-----7-5----5------7-5-----5------0-------7---0-----7-----7--5--3--2/7-
E|--0-------7-----0-------7--------------------------------------------0-


Solo.
G|---------------------------------------------------------------
D|---------------------------------------------------------------
A|-----------------------------------------7777-5555-3333-2222---
E|--0000000000000000000-55555555555555---------------------------

G|-----------------------
D|-----------------------
A|-----------------------
E|--00000000000000000000-



Besame                 beesame        muuuchooo         Que tengo miedo..
G|-----------------------------------------------------------------------
D|-------------------------------------7-5-7------7-5---5----------------
A|-----7-5----5------7-5-----5------0-------7---0-----7-----7--5--3--2/7-
E|--0-------7-----0-------7--------------------------------------------0-

G|-----------------------
D|-----------------------
A|-7-5---5------7-5----5-
E|-----7-----0-------7---

Que tengo miedo a pederte y tenerte despues.....
G|----------------------
D|----------------------
A|-7-5-3-2--------------
E|--------------------0-



Jonathan Ortiz.





Calificar esta versión:
Aviso: Este fichero es trabajo propio de su transcriptor y representa su interpretación personal de la canción. El material contenido en esta página es para exclusivo uso privado, por lo que se prohibe su reproducción o retransmisión, así como su uso para fines comerciales.
Más versiones de Bésame Mucho, Zoe
Besame Mucho
acordes
Besame Mucho (ver 2)
acordes
Besame Mucho (ver 3)
acordes
Besame Mucho (ver 4)
acordes
Besame Mucho (ver 5)
acordes
Bésame Mucho
tablatura
Bésame Mucho (ver 2)
tablatura
Bésame Mucho
bajo
Descubre más canciones de Zoe