Bésame Mucho, Zoe (tablatura)

Autor: Anónimo | 21902 visualizaciones



Intro   Riff 1 (4) Riff 2  Riff 1 (4) Riff 2  Riff 1 (4) Riff 2
        Riff 1 (4) Riff 3  (5)


Riff 1
e-----------------------|
B-----------------------|
G-----------------------|
D--------2--0----0h2----|
A--------------2--------|
E---0-------------------|

Riff 2 (Armónicos)
e----[12-------|
B----[12-------|
G----[12-------|
D--------------|
A--------------|
E--------------|

Riff 3
e----0-3-2--3-0----0-3-2--3-0----0-3-2--3-0----0-3-2--3-0------|
B--0-------------0-------------1-------------1-----------------|
G--------------------------------------------------------------|
D--------------------------------------------------------------|
A--------------------------------------------------------------|
E--------------------------------------------------------------|

Em              Am   Riff 4
Bésame, bésame mucho,
        Am/G          Am/F#    B7      Em
como si fuera esta la noche la última vez.

Riff 4
e--------------|
B-1-0h1p1------|
G---------2----|
D--------------|
A--------------|
E--------------|

 E7             Am   Riff 4
Bésame, bésame mucho,
Em        Em7         C          B7       Em
que tengo miedo a tenerte y, perderte después.

PRECORO
Em              Am   Riff 4
Bésame, bésame mucho,
        Am/G          Am/F#    B7      Em      Riff 5
como si fuera esta la noche la última vez
E7             Am   Riff 4
Bésame, bésame mucho,
Em        Em7         C          B7       Em
que tengo miedo a tenerte y, perderte después.

Riff 5
e--------------------|
B--------------------|
G--------------------|
D------------0-1-2---|
A--2-1-2-3-4---------|
E--------------------|

CORO
 Am                 Em
Quiero tenerte muy cerca,
                F#                 B7
mirarme en tus ojos, verte junto a mí.
 Am                  Em
Piensa que tal vez mañana,
              F#                   B7
yo ya estaré lejos, muy lejos de ti.

INTER   Riff 1  (4)  Riff 3  (2)

PRECORO

SOLO
  Em                    Am           Am/G  Am/F# B7   Em
e------------------------------------------------------------0-0-|
B-----------------------------------------------------------0--0-|
G----------------------------------------------------------0---0-|
D---------------------------------------------------------2------|
A-----------------------2-0-0--0-0-0-2-2-2-3-3-3-2-------2-------|
E--0--0-0-0---0-0-0-2-3----------------------------3-2-0---------|

  Em             E7                         Am
e----------------------0-----0-----0------0---------------------|
B------------------------3-----3-----3-------0-1-0----1-0-1-0---|
G-------------------1-------1-----1-----1----------2----------2-|
D------------0-1-2----------------------------------2-----------|
A--2-1-2-3-4----------------------------------------------------|
E---------------------------------------------------------------|

   Em     Em7    C      B7    Em                       E7
e----------------------------------0-0----------------------|
B---------------------------------0--0----------------------|
G--------------------------------0---0----------------------|
D--2----------------------------2------------------0-1-2----|
A----2----2--------------------2---------2-1-2-3-4----------|
E------3----3-0--3-2-0--2-3-2-0-----------------------------|

 E7             Am     Riff 4
Bésame, bésame mucho,
 Em        Em7        C        B7        Em
que tengo miedo a tenerte y perderte después,
 Em        Em7        C        B7     /G  /E  Em
que tengo miedo a tenerte y perderte, después.





Calificar esta versión:
Aviso: Este fichero es trabajo propio de su transcriptor y representa su interpretación personal de la canción. El material contenido en esta página es para exclusivo uso privado, por lo que se prohibe su reproducción o retransmisión, así como su uso para fines comerciales.
Más versiones de Bésame Mucho, Zoe
Besame Mucho
acordes
Besame Mucho (ver 2)
acordes
Besame Mucho (ver 3)
acordes
Besame Mucho (ver 4)
acordes
Besame Mucho (ver 5)
acordes
Bésame Mucho
tablatura
Bésame Mucho (ver 2)
tablatura
Bésame Mucho
bajo
Descubre más canciones de Zoe