Besame Mucho, Zoe (acordes) (ver 4)

Autor: jimdepe | 35873 visualizaciones

amam7b7ce7emem7fsos


ZOE - BESAME MUCHO 

[email protected] 

busquenme en facebook como jim depe 
espero que les guste si necesitan ayuda platiquenme y miramos que es vale un abrazo desde bogota Colombia 


Em                               Am
e|------0-3-2-3-0----0-3-2-3-0-|-----0-3-2-3-0----0-3-2-3-0-
B|---0-------------0-----------|--1-------------1-----------
G|-----------------------------|----------------------------
D|-----------------------------|----------------------------
A|-----------------------------|----------------------------
E|---0-------------0-----------|--0-------------0-----------

Em              Am
Besame, besame mucho
Am      Am7
como si fuera esta noche
B7         Em
la ultima vez.

E7              Am
Besame, besame mucho
Em        Em7       C
Que tengo miedo a tenerte
B7            Em
y perderte después

Coro

Am               Em
Quiero tener muy cerca
              F#                 B7
Mirarte a los ojos verte junto a Mi 
Am                 Em
piensa que tal vez mañana
                  F#
yo ya estaré muy lejos
             B7   Em
muy lejos de ti

Em                                 Am
e|------0-3-2-3-0----0-3-2-3-0-|-----0-3-2-3-0----0-3-2-3-0-
B|---0-------------0-----------|--1-------------1-----------
G|-----------------------------|----------------------------
D|-----------------------------|----------------------------
A|-----------------------------|----------------------------
E|---0-------------0-----------|--0-------------0-----------

Em              Am
Besame, besame mucho
Am      Am7
como si fuera esta noche
B7         Em
la ultima vez.

E7              Am
Besame, besame mucho
Em        Em7       C
Que tengo miedo a tenerte
B7            Em
y perderte después
 
Esto va con el silvido [con pick]
e|------------------------------------------------------------
B|------------------------------------------------------------
G|------------------------------------------------------------
D|------------------------------------------------------------
A|------------------------------------------------------------
E|-0-0-0-0-0-0-0-2-3-7-5-5-5-5-5-7-7-7-8-8-8--8-7-5-0---------

      Em                          Em#aqui lo arpejean 
e|----------------------------|--------|-----------------------
B|----------------------------|------8-|------------------------
G|----------------------------|------8-|-----------------------
D|---2------------------------|--7-----|-----------------------
A|---2---2-2-2-2-3-3-3-5-7----|--------|--3-0--------------------
E|----------------------------|--------|------0--7-5-0-5-3-0-----

e|--------------|----------
B|--------------|------------
G|--------------|------------
D|--2-----------|------------------
A|--2-----------|2-2-2-2-3-3-3-5-7
E|--------------|------------------

Em              Am
Besame, besame mucho

Em        Em7       C
Que tengo miedo a tenerte
B7            Em
y perderte después

Em        Em7       C
Que tengo miedo a tenerte
B7            Em                Em#
y perderte después............................................

Jim Depe [; en facebook





Calificar esta versión:
Aviso: Este fichero es trabajo propio de su transcriptor y representa su interpretación personal de la canción. El material contenido en esta página es para exclusivo uso privado, por lo que se prohibe su reproducción o retransmisión, así como su uso para fines comerciales.
Más versiones de Besame Mucho, Zoe
Besame Mucho
acordes
Besame Mucho (ver 2)
acordes
Besame Mucho (ver 3)
acordes
Besame Mucho (ver 4)
acordes
Besame Mucho (ver 5)
acordes
Bésame Mucho
tablatura
Bésame Mucho (ver 2)
tablatura
Bésame Mucho
bajo
Descubre más canciones de Zoe