Californication, Red Hot Chili Peppers (tablatura) (ver 7)

Autor: cristianrhcp | 19828 visualizaciones



Es una buena Cancion y esta muy facil

INTRO
e-------------------------------- 
b-------------0---1-------------
g--------------------------------
d-------2------------------------
a----0--------------------------- 
e--------------------------------

e--------------------------------
b--------------------------------
g-------------0---2-------------- 
d--------------------------------
a--------3-----------------------
e---1----------------------------

riff 2
e-------------------------------------------------------------------------------
b----------5-------------------------------------------------------------------3
g-----------------------------------4-------------------------2-----------------
d-----5---------5---------------------------------------------------------0-----
a-3----------------------------5----------5--------------3---------3------------
e-----------------------3-------------------------1-----------------------------

Pre-Coro
Am F

Coro 
C - G - D7 - Am

Solo Guitarra

e----------9-----------------------------------9---------------------------
b---10-----------------------------------10--------------------------------
g------------------11^--------------------------------11^------------------
d--------------------------------------------------------------------------
a--------------------------------------------------------------------------
e--------------------------------------------------------------------------

e--------------------------------------------------------------------------
b--------------------------------------------------------------------------
g—(11)-----11---11---11----------11/9--------------------------------------
d------------------------------------------------11--11--------9--11-------
a--------------------------------------------------------------------------
e--------------------------------------------------------------------------

e-----------------------------------------------9------12------14----------
b---------------------------------------10---------------------------------
g----9---11^----------9----------------------------------------------------
d---------------------------11---------------------------------------------
a--------------------------------------------------------------------------
e--------------------------------------------------------------------------

e—(14)------------------9-----12-------14^------------14-------------------
b-----------------10-------------------------------------------------------
g--------------------------------------------------------------------------
d--------------------------------------------------------------------------
a--------------------------------------------------------------------------
e--------------------------------------------------------------------------

e-17---16---14-------------14----------------------------------------------
b---------------------17---------17---14---17---14---14----14--------------
g---------------------------------------------------------16^--16^---------
d--------------------------------------------------------------------------
a--------------------------------------------------------------------------
e--------------------------------------------------------------------------

e--------------------------14^-------12----------12------------------------
b--14--------17---14-----------------------14----------14------12----------
g—-16^---------------------------------------------------------------------
d--------------------------------------------------------------------------
a--------------------------------------------------------------------------
e--------------------------------------------------------------------------

e-----------12-----10-----9---------
b----10----------------------10-----
g-----------------------------------
d-----------------------------------
a-----------------------------------
e-----------------------------------
Cualquier Comentario agamelo





Calificar esta versión:
Aviso: Este fichero es trabajo propio de su transcriptor y representa su interpretación personal de la canción. El material contenido en esta página es para exclusivo uso privado, por lo que se prohibe su reproducción o retransmisión, así como su uso para fines comerciales.