Californication, Red Hot Chili Peppers (bajo) (ver 2)

Autor: guns96 | 30362 visualizaciones



Intro 
G|------9-9-7h9p7-------7-7----|------9-9-7h9p7--------10-10-7--| 
D|--7-7----------10---------10-|--7-7----------10---------------| 
A|------------------8-8--------|------------------8-8-----------| 
E|-----------------------------|--------------------------------| 
 
Verse 1 
(2x) 
G|------9-9-7h9p7-------7-7----|------9-9-7h9p7--------10-10-7--| 
D|--7-7----------10---------10-|--7-7----------10---------------| 
A|------------------8-8--------|------------------8-8-----------| 
E|-----------------------------|--------------------------------| 
 
G|-------------------| 
D|-------------------| 
A|--3-3---------5-5--| 
E|------3-3-1-1------| 
 
(2x) 
G|------9-9-7h9p7-------7-7----|------9-9-7h9p7--------10-10-7--| 
D|--7-7----------10---------10-|--7-7----------10---------------| 
A|------------------8-8--------|------------------8-8-----------| 
E|-----------------------------|--------------------------------| 
 
G|-------------------| 
D|-------------------| 
A|--3-3---------5-5--| 
E|------3-3-1-1------| 
 
PreChorus 1 
G|-----------------|-----------------|-----------------| 
D|7-777-77-77-9-10-|----------10-9---|7-777-77-77-9-10-| 
A|-----------------|8-888-88-8----10-|-----------------| 
E|-----------------|-----------------|-----------------| 
 
G|-------7/9-7------| 
D|-------------10---| 
A|-8-888----------8-| 
E|------------------| 
 
(X3) 
G|-----------------|-----------------| 
D|7-777-77-77-9-10-|----------10-9---| 
A|-----------------|8-888-88-8----10-| 
E|-----------------|-----------------| 
 
G|-----------------|-----------------| 
D|7-777-77-77-9-10-|-----------------| 
A|-----------------|8-888-88-8888888-| 
E|-----------------|-----------------| 
 
Chorus 1 
G|---------------------|---------------| 
D|---------------------|---------------| 
A|--3-3-------5-5------|-3-3--------5~-| 
E|-------3-3-------5-5-|------3-1-3----| 
 
Verse 2:  Same as Verse 1 
 
PreChorus 2 
G|-----------------|----------------|------------------| 
D|7-777-77-77-9-10-|----------10-9--|-7-777-77-77-9-10-| 
A|-----------------|8-888-88-8----10|------------------| 
E|-----------------|----------------|------------------| 
 
G|-------------------------| 
D|------------10-10-9------| 
A|-8-888-88-8--------10--8-| 
E|-------------------------| 
 
G|-----------------|----------------|-----------------| 
D|7-777-77-77-9-10-|----------10-9--|7-777-77-77-9-10-| 
A|-----------------|8-888-88-8----10|-----------------| 
E|-----------------|----------------|-----------------| 
 
G|----------------------| 
D|------------10h12-9---| 
A|-8-888-88-8--------10-| 
E|----------------------| 
 
G|-----------------|----------------|------------------| 
D|7-777-77-77-9-10-|----------10-9--|-7-777-77-77-9-10-| 
A|-----------------|8-888-88-8----10|------------------| 
E|-----------------|----------------|------------------| 
 
G|-------------------------| 
D|------/15-15-15-15-15-15-| 
A|-8-88--------------------| 
E|-------------------------| 
 
Chorus 2 
G|---------------------|-----------------------7---7-7-| 
D|---------------------|-------------------------------| 
A|-3-3-------5-5-------|3-3---------5--5-5-5-5---5-----| 
E|------3-3-------5-5--|-----3-1-3---------------------| 
 
G|---------------------|-------------------| 
D|---------------------|----3-1------------| 
A|-3-3-------5-5-------|3-3-----3-1-----5~-| 
E|------3-3-------5-5--|------------3-5----| 
 
Solo 
(2x) 
G|-------12-----11---11-------------| 
D|----12----12-----11---------------| 
A|--9----------9----------5--5--5-5-| 
E|----------------------------------| 
 
G|------------7------------| 
D|------9---7------7-------| 
A|----9---5------7-------7-| 
E|--7----------5-----0-7---| 
 
(2x) 
G|-------12-----11---11-------------| 
D|----12----12-----11---------------| 
A|--9----------9----------5--5--5-5-| 
E|----------------------------------| 
 
(3x) 
G|------------7------------| 
D|------9---7------7-------| 
A|----9---5------7-------7-| 
E|--7----------5-----0-7---| 
 
 
Verse 3 (2x) 
G|------9-9-7h9p7-------7-7----|------9-9-7h9p7--------10-10-7--| 
D|--7-7----------10---------10-|--7-7----------10---------------| 
A|------------------8-8--------|------------------8-8-----------| 
E|-----------------------------|--------------------------------| 
 
G|-------------------| 
D|-------------------| 
A|--3-3---------5-5--| 
E|------3-3-1-1------| 
 
PreChorus 3 
G|-----------------|----------------|------------------| 
D|7-777-77-77-9-10-|----------10-9--|-7-777-77-77-9-10-| 
A|-----------------|8-888-88-8----10|------------------| 
E|-----------------|----------------|------------------| 
 
G|----------------| 
D|----------------| 
A|-8-7-7-5-5------| 
E|----------6-5-3-| 
 
G|-----------------|----------------|-----------------| 
D|7-777-77-77-9-10-|----------10-9--|7-777-77-77-9-10-| 
A|-----------------|8-888-88-8----10|-----------------| 
E|-----------------|----------------|-----------------| 
 
G|----------------------| 
D|------------10h12-9---| 
A|-8-888-88-8--------10-| 
E|----------------------| 
 
G|-----------------|----------------|------------------| 
D|7-777-77-77-9-10-|----------10-9--|-7-777-77-77-9-10-| 
A|-----------------|8-888-88-8----10|------------------| 
E|-----------------|----------------|------------------| 
 
G|-----/10-10-10-10-10-10-| 
D|------------------------| 
A|-8-88-------------------| 
E|------------------------| 
 
Chorus 3:  Same as Chorus 2





Calificar esta versión:
Aviso: Este fichero es trabajo propio de su transcriptor y representa su interpretación personal de la canción. El material contenido en esta página es para exclusivo uso privado, por lo que se prohibe su reproducción o retransmisión, así como su uso para fines comerciales.