Californication, Red Hot Chili Peppers (acordes) (ver 4)

Autor: kirkhammet | 47233 visualizaciones



Riff1:                          Riff2:

1a--------------------       1a------------------------
2a-----0-1------------       2a-----5---------------2--
3a-------------0-2----       3a-----------4------2-----
4a----2---------------       4a----5-5--------------0--
5a---0--------3-------       5a---3------5-5----3-3----
6a-----------1--------       6a---------3------1-------


       Riff1
Psychic spies from China 
Try to steal your mind?s elation 
       Riff1
Little girls from Sweden 
Dream of silver screen quotations 
       Riff2
And if you want these kind of dreams 
It?s Californication 

       Riff1
It?s the edge of the world 
And all of western civilization 
       Riff1
The sun may rise in the East 
At least it settles in the final location 
       Riff2
It?s understood that Hollywood 
sells Californication 

          Am
Pay your surgeon very well 
          F
To break the spell of aging 
          Am
Celebrity skin is this your chin 
          F
Or is that war your waging 

          Am
First born unicorn 
          F
Hard core soft porn 
C            G    F     F
Dream of Californication 
C            G    F     F
Dream of Californication 

       Riff1
Marry me girl be my fairy to the world 
Be my very own constellation 
       Riff1
A teenage bride with a baby inside 
Getting high on information 
       Riff2
And buy me a star on the boulevard 
It?s Californication 

       Riff1
Space may be the final frontier 
But it?s made in a Hollywood basement 
       Riff1
Cobain can you hear the spheres 
Singing songs off station to station 
       Riff2
And Alderon?s not far away 
It?s Californication 

          Am
Born and raised by those who praise 
          F
Control of population 
          Am
Everybody?s been there and 
          F
I don?t mean on vacation 

          Am
First born unicorn 
          F
Hard core soft porn 
C            G    F     F
Dream of Californication 
C            G    F     F
Dream of Californication 

Solo:
1a-----9-------9---------------------------------
2a---10------10----------------------------------
3a------13^-----13^--131313-9-----------9-13-----
4a---------------------------13--13-9-13----13---
5a-----------------------------------------------
6a-----------------------------------------------

1a-----9-12-14----9-12-14^14--17-16-14-12-14-12--12-------------
2a---10---------10-----------------------------14--14--12^-12^--
3a--------------------------------------------------------------
4a--------------------------------------------------------------
5a--------------------------------------------------------------
6a--------------------------------------------------------------

1a-----12--14^-12--12--------12-10--9-----
2a---12--14------14--14-12-10--------10---
3a----------------------------------------
4a----------------------------------------
5a----------------------------------------
6a----------------------------------------

       Riff1
Destruction leads to a very rough road 
But it also breeds creation 
       Riff1
And earthquakes are to a girl?s guitar 
They?re just another good vibration 
       Riff 2
And tidal waves couldn?t save the world 
From Californication 

          Am
Pay your surgeon very well 
          F
To break the spell of aging 
          Am
Sicker than the rest there is no test 
          F
But this is what you?re craving 

          Am
First born unicorn 
          F
Hard core soft porn 
C            G    F     F
Dream of Californication 
C            G    F     F
Dream of Californication





Calificar esta versión:
Aviso: Este fichero es trabajo propio de su transcriptor y representa su interpretación personal de la canción. El material contenido en esta página es para exclusivo uso privado, por lo que se prohibe su reproducción o retransmisión, así como su uso para fines comerciales.