Californication, Red Hot Chili Peppers (tablatura) (ver 4)

Autor: Ivancito | 20763 visualizaciones



Californication



Riff 1:
e|-------------------------------------|
B|------0-1-1--------------------------|
G|------------0h2p0-------0-0h2-2------|
D|----2------------3------------0h2----|
A|--0-------------------3--------------|
E|--------------------1----------------|

Riff 2:
e|-----------------------------------|
B|------0-1-1------------------------|
G|------------0h2p0-------0-2-2------|
D|----2-------------3-----------0h2--|
A|--0-------------------3------------|
E|--------------------1--------------|

Riff 3:

e|-----0--------------------------1--|     
B|-------0------3-----------------3--|
G|------------------------------2----|
D|---2------------0------3----0------|
A|-3----------2--------3---3---------|
E|----------3--------1---------------|

-Introducion:

2x:
Riff 1
Riff 2

Riff 1   
Psychic spies from China 
Try to steal your mind’s elation 

Riff 2
Little girls from Sweden 
Dream of silver screen quotations 

Riff 3                       
And if you want these kind of dreams 
It’s Californication 

Riff 1
Riff 2

Riff 1
It’s the edge of the world 
And all of western civilization 

Riff 2
The sun may rise in the East 
At least it settles in the final location 

Riff 3         
It’s understood that Hollywood 
Sells Californication

Am   F
Am   F

Am               F
Pay your surgeon very well
   Am                 F
To break the spell of aging
  Am                   F 
Celebrity skin is this your chin
      Am             F 
Or is that war your waging 

Refrão:
Am              F
  First born unicorn
Am               F
  Hard core soft porn 
  C            G    Dm     Am 
  Dream of Californication 
  C            G    Dm
  Dream of Californication 

Riff 1
Riff 2

Riff 1
Marry me girl be my fairy to the world
Be my very own constellation
           
Riff 2
A teenage bride with a baby inside
Getting high on information 
           
Riff 3
And buy me a star on the boulevard
It’s Californication 

Riff 1
Riff 2

Riff 1
Space may be the final frontier
But it’s made in a Hollywood basement

Riff 2
Cobain can you hear the spheres
Singing songs off station to station

Riff 3
And Alderon’s not far away
It’s Californication

Am   F
Am   F

Am                 F 
Born and raised by those who praise
   Am          F
Control of population 
Am               F
Everybody’s been there and
  Am              F 
I don’t mean on vacation

Refran

C            G    Dm     Am
Dream of Californication
C            G    Dm
Dream of Californication

Solo

e|----9------------------9------------------------------------------------|
B|-10----------------10------------------------------------------------------|
G|-------11-11-11------------11/13--11---13/14--13--11--9--9--------------11/13---11--9-11--|
D|-------------------------------------------------------------11-11---11-------------------|


e|--------------------------------------------------------------
B|--------------------12/14-14--12--10--12--12--14--12--10--9--10--12b(14)-----------------------|
G|------------9h11x--------------------------------------------------------------|
D|-----9h11x-------------------------------------------------------------------|
A|-9X----------------------------------------------------------------

e|---------------------------------------12--9-9-9---12/14--14-14-14-14-14----20-20-20-|
B|-9--10--9---12/14---12---10---9---10--------------------------------------------------
G|--------------------------------------------------------------------------------------|
D|-------------------------------------------------------|

Riff 1
Riff 2

Riff 1
Destruction leads to a very rough road
But it also breeds creation
           
Riff 2
And earthquakes are to a girl’s guitar
They’re just another good vibration
          
Riff 3
And tidal waves couldn’t save the world
From Californication 

Am   F
Am   F

Am               F
Pay your surgeon very well
   Am                 F 
To break the spell of aging
Am                   F
Sicker than the rest there is no test  
    Am                  F
But this is what you’re craving

Refran

C            G    Dm     Am
Dream of Californication 
C            G    Dm/C
Dream of Californication





Calificar esta versión:
Aviso: Este fichero es trabajo propio de su transcriptor y representa su interpretación personal de la canción. El material contenido en esta página es para exclusivo uso privado, por lo que se prohibe su reproducción o retransmisión, así como su uso para fines comerciales.