Californication, Red Hot Chili Peppers (tablatura) (ver 6)

Autor: JuanDaCh | 36862 visualizaciones



e|----9--------9---------------------------------------|
B|-10-------10-----------------------------------------|
G|------11b------11b-11-11-11p9------------9-9b11-9----|
D|------------------------------11-11-9-11----------11-|
A|-----------------------------------------------------|
E|-----------------------------------------------------|

e|----9-12-14----9-12-14h16p14-14-|
B|-10---------10------------------|
G|--------------------------------|
D|--------------------------------|
A|--------------------------------|
E|--------------------------------|

e|-17-16-14-12-14-12----12----------------12----|
B|-------------------14----14-12b-12b-12b----14-|
G|----------------------------------------------|
D|----------------------------------------------|
A|----------------------------------------------|
E|----------------------------------------------|

e|-12b14-12----12----------12-9-10-9----|
B|----------14----14-12-10-----------10-|
G|--------------------------------------|
D|--------------------------------------|
A|--------------------------------------|
E|--------------------------------------|

h:Hammer On
p:Pull Off
b:Bend





Calificar esta versión:
Aviso: Este fichero es trabajo propio de su transcriptor y representa su interpretación personal de la canción. El material contenido en esta página es para exclusivo uso privado, por lo que se prohibe su reproducción o retransmisión, así como su uso para fines comerciales.