Wish You Were Here, Pink Floyd (tablatura) (ver 6)

Autor: rafakpo | 34219 visualizaciones

WISH YOU WERE HERE
~~~~~~~~~~~~~~~~~~
Pink Floyd


e------------3-3-3-------------3-3-3--
B------------3-3-3-------------3-3-3--
G------------0-0-0-----0-------0-0-0--   
D-------0-2--2-2-2---2---2--0--0-0-0--     x2
A---0-2------0-0-0-------------2-2-2--
E-3----------------------------3-3-3--



e-----------3-3-3------------3-3-3--
B-----------3-3-3------------3-3-3--
G-----------0-0-0------------2-2-2--       x2
D------0-2--2-2-2---2-0------2-2-2--
A---0-2-----0-0-0-------2-0--0-0-0--
E-3---------------------------------



Apenas termina la tablatura emieza un razgeo en Sol y despues viene esto:                                     ~~~
                                                

 Do                       Re

So, so you think you can tell
      
            Lam
Heaven from hell

                Sol
Blue skys from pain

                       Re
Can you tell a green field

                   Do
From a cold still rail?

              Lam
Smile from a veil?

                      Sol
Do you think you can tell?

                     Do
Did they get you to trade?

                 Re
Your heros for ghosts?

               Lam
Hot ashes for trees?

                    Sol
Hot air for a cool breeze?

                   Re
Cold confort for change?

           Do
Did you exchange?
 
                      Lam
A walk on part in the war?

                         Sol                  
For a lead or role in a cage?




Y DESPUES DE ESTO SE REPITE EL INTRO...
Calificar esta versión:
Aviso: Este fichero es trabajo propio de su transcriptor y representa su interpretación personal de la canción. El material contenido en esta página es para exclusivo uso privado, por lo que se prohibe su reproducción o retransmisión, así como su uso para fines comerciales.