Wish You Were Here, Pink Floyd (tablatura) (ver 5)

Autor: Galvislml | 14663 visualizaciones

e---------------------3-------------------3---|
B---------------------3-------------------3---|
G---------------------0-------0-----------0---|
D-------------0--2----0----2-----2--------0---|   * 2            
A------0h2------------2-------------------2---|     
E---3-------------------------------------3---|      

                         
                
e---------------------3--------------------------------3---|
B---------------------3--------------------------------3---|
G---------------------0--------------------------------2---|
D-------------0--2----0------2-----0-------------------2---| * 2
A------0h2------------2------------------2-------0-----0---|
E---3--------------------------------------------------0---|




e---3---|    
B---3---|
G---0---|
D---0---|   ( ritmo del solo )      
A---2---|
E---3---|




Solo:
e----------------------------------------------------------|
B----------3---5-----3-------------------------------------|
G-----2/4-------------------4p2p0--------------------------|     
D----------------------------------0-----0---0-------------|
A------------------------------------1/2-------------------|
E----------------------------------------------------------|


e----3/5/3-------------------------------------------------|
B----3/5/3----3/5/3----3----3/5/3--------------------------| 
G-------------2/4/2----0----2/4/2---2p0----2/4-------------|
D------------------------------------------3/5-------------|
A----------------------------------------------------------|
E----------------------------------------------------------|


e--------------------------------------------------------------------|
B----------3--------5----5b---5----3--------------3-----5------------|
G----2/4-------4----------------------2----4b----------------4b-----2|
D--------------------------------------------------------------------|
A--------------------------------------------------------------------|
E--------------------------------------------------------------------|


e-------------------------------------------------------|
B---------3---------5-----5b-----5------3---------------|  
G----2/4------4-----------------------------2----4b----2| 
D-------------------------------------------------------|
A-------------------------------------------------------|
E-------------------------------------------------------|


Melodia

        C       D      Am       G       
e|------0-------2-------0-------3-------
B|------1-------3-------1-------3-------
G|------0-------2-------2-------0-------
D|------2-------0-------2-------0-------
A|------3---------------0-------2-------
E|------3-----------------------3-------


  C                        D     Am
So, so you think you can tell Heaven from Hell,
                G
blue skies from pain.
                      D                       C 
Can you tell a green field from a cold steel rail?
               Am
A smile from a veil?
                     G
Do you think you can tell?
                        C                      D
And did they get you to trade your heroes for ghosts?
              Am 
Hot ashes for trees?
              G    
Hot air for a cool breeze?
                 D
Cold comfort for change?
Solo
e|--------------------------------10/12-10-10--|
B|--10/12-12-12---12-10-12p10p8----------------|
G|---------------------------------------------|
D|---------------------------------------------|
A|---------------------------------------------|
E|---------------------------------------------|
e---------10-10-10-12-10------------------------|
B---10/12--------------------12p10p8------------|
G-----------------------------------7-7---9-7---|
D---------------------------------------9-------|
A-----------------------------------------------|
E-----------------------------------------------|

e----------------10-10-10-----------12------------|
B-----8-10-10/12---------10--12/14----14p12p10----|
G---9---------------------------------------------|
D-------------------------------------------------|
A-------------------------------------------------|
E-------------------------------------------------|
                                                    
e---------10---------------------------12---------------|
B---10/12----12p10p8-10-12-12-8--12/14-----14p12p10--8--|
G-------------------------------------------------------|
D-------------------------------------------------------|
A-------------------------------------------------------|
E-------------------------------------------------------|



            C                              Am                                  
And did you exchange a walk on part in the war
                     G
for a lead role in a cage?
C                               D
How I wish, how I wish you were here.
            Am
We`re just two lost souls swimming in a fish bowl,
           G
year after year,
D               
Running over the same old ground. 
C                                Am
What have we found? The same old fears.
              G
Wish you were here.




Ultimo solo




e|--------10-10--12-10------------10/12-10-10--
B|--10/12--------------12p10p8--8--------------
G|---------------------------------------------
D|---------------------------------------------
A|---------------------------------------------
E|---------------------------------------------


e|--12/14-12-----------------------------------
B|----------12/14-14----121/4-14/12-10---------
G|-------------------12------------------------
D|---------------------------------------------
A|---------------------------------------------
E|---------------------------------------------


e|--------10-10----------10-10----------10-10------------
B|--10/12-------10-10/12-------10-10/12------10-10/12-12-
G|-------------------------------------------------------
D|-------------------------------------------------------
A|-------------------------------------------------------
E|-------------------------------------------------------


e|-------12-12----------12-12
B|-12/14-------12-12/14------
G|---------------------------
D|---------------------------
A|---------------------------
E|---------------------------



e|-----------12-12-------------
B|--12-12/14-------12-12/14-10-
G|-----------------------------
D|-----------------------------
A|-----------------------------
E|-----------------------------



e|-------10-10----------10-10----------10-10-----------
B|-10/12-------10-10/12-------10-10/12------10-10/12-12
G|-----------------------------------------------------
D|-----------------------------------------------------
A|-----------------------------------------------------
E|-----------------------------------------------------





e|--------12-12----------12-12----------12-(14)b12-(12)b10---
B|--12/14-------12-12/14-------12-12/14--------------------10
G|-----------------------------------------------------------
D|-----------------------------------------------------------
A|-----------------------------------------------------------
E|-----------------------------------------------------------
Calificar esta versión:
Aviso: Este fichero es trabajo propio de su transcriptor y representa su interpretación personal de la canción. El material contenido en esta página es para exclusivo uso privado, por lo que se prohibe su reproducción o retransmisión, así como su uso para fines comerciales.