Wish You Were Here, Pink Floyd (tablatura) (ver 3)

Autor: The Pretender | 32733 visualizaciones

Chords used:

C D Am G Em A
e|------0-------2-------0-------3-------0-------0-------
B|------1-------3-------1-------3-------0-------2-------
G|------0-------2-------2-------0-------0-------2-------
D|------2-------0-------2-------0-------2-------2-------
A|------3---------------0-------2-------2-------0-------
E|------3-----------------------3-------0---------------

Intro:
Guitar 1: Electric, clean with high gain, picking close to bridge.

e|------------3-3-3-3---------------3-3-|-------------3-3-3-3-----------3-3--3------|
B|--------------3-3-----------------3-3-|---------------3-3-------------3----3------|
G|--------------0-0-------0---------0-0-|---------------0-0------0------0----0------|
D|------0-2-----2-2-----2---2-0-----0-0-|--------0-2----2-2----2---2-0--0--0-0------|
A|--0h2---------------------------------|----0h2------------------------------------|
E|--------------------------------------|--3----------------------------------------|

e|-------------3-3-3-3-------------3-3--3-|-------------3-3-3-3----------3-3--3-----|
B|---------------3-3---------------3----3-|---------------3-3------------3----3-----|
G|---------------0-0---------------0----0-|---------------0-0------------0----0-----|
D|-------0-2-----2-2-----2-0-------0--0-0-|--------0-2----2-2----2-0-----0--0-0-----|
A|---0h2---------------------2-0----------|----0h2------------------2-0-------------|
E|-3--------------------------------------|--3--------------------------------------|

e|-------------3-3---3---3-3---3---33-3--(yeah strum however you like here)----------
B|-------------3-3---3---3-----3---33-3----------------------------------------------
G|-------------0-----0---0-----0---00-0--Repeat once under the following-------------
D|-------0-----0---------0-----0---00-0--solo then stop------------------------------
A|---0h2-------2---2-----2-----2---22-2----------------------------------------------
E|-3-------3---3---3---3-3---3-3-3-33-3----------------------------------------------

Solo:
Guitar 2: Acoustic, low gain but louder than guitar 1

e|-----------------------------------|-------------3/5-3----------------------------|
B|------3--5----3--------------------|-------------3/5-3--3/5-5---3/5-5/3-0---------|
G|--2/4------h4----4p2p0-------------|--------------------2/4-4-0-2/4-4/2-0---------|
D|-----------------------0-----0-0---|----------------------------------------------|
A|-------------------------1/2-------|----------------------------------------------|
E|-----------------------------------|----------------------------------------------|

e|-------------------------------------------|--------------------------------------|
B|------3---5--(7)b5---3------------3--------|-------3---5--(7)b5b(7)b5-3-----------|
G|--2/4---4----------4---2---2b3--4---4b5--2-|---2/4---4------------------2--4b(6)-2|
D|-------------------------------------------|--------------------------------------|
A|-------------------------------------------|--------------------------------------|
E|-------------------------------------------|--------------------------------------|

G C
e|--3-3---3--3---3-3-------0---------------------------------------------------------
B|----3------3---3---------1--Start of verse 1---------------------------------------
G|----0------0---0---------0---------------------------------------------------------
D|----0------0---0---------2---------------------------------------------------------
A|----2-2----2---2---2-----3---------------------------------------------------------
E|----3-3--3-3-3-3---3-----3---------------------------------------------------------


Verse 1 (Guitar 2 only)

C D
So, so you think you can tell

Am G
Heaven from hell, blue skies from pain?

D C
Can you tell a green field from a cold steel rail,

Am G
A smile from a veil? Do you think you can tell

Verse 2(Guitar 1, drums and bass come in)

C D
And did they get you to trade your heroes for ghosts?

Am G
Hot ashes for trees? Hot air for a cool breeze?

D C
Cold comfort for change? Did you exchange

Am G
A walk on part in the war for a lead roll in a cage?

Solo 2:
Guitar 2:

e|---------------------------10/12-10-10--|---------------------------------------3--
B|--10/12-12-12---12-12p10p8--------------|--10b(12)b10b(12)-b(12)-(12)b10-8--3h5---5
G|----------------------------------------|------------------------------------------
D|----------------------------------------|------------------------------------------
A|----------------------------------------|------------------------------------------
E|----------------------------------------|------------------------------------------

e|--------10-------10------------------------------|-------12-------12---------------
B|--10/12----10/12----10b(12)-10b(12)-10b(12)b10-8-|-12/14----12/14---12b(14)-12b(14)
G|-------------------------------------------------|---------------------------------
D|-------------------------------------------------|---------------------------------
A|-------------------------------------------------|---------------------------------
E|-------------------------------------------------|---------------------------------

e|-----------------|--------10-------10------------------------------|--------12-----
B|--12b(14)b12-10--|--10/12----10/12----10b(12)-10b(12)-10b(12)b10-8-|--12/14--------
G|-----------------|-------------------------------------------------|---------------
D|-----------------|-------------------------------------------------|---------------
A|-----------------|-------------------------------------------------|---------------
E|-----------------|-------------------------------------------------|---------------

e|-------12-------------10-----------------------------------------------------------
B|-12/14----12b(14)b12-----(12)b10-8-------------------------------------------------
G|-----------------------------------------------------------------------------------
D|-----------------------------------------------------------------------------------
A|-----------------------------------------------------------------------------------
E|-----------------------------------------------------------------------------------

Chords under solo 2:
Guitar 1:

Em D Em D Em A Em A G G

Verse 3

C D
How I wish, how I wish you were here.

Am
Cause we`re just two lost souls swimming in a fish bowl

G
Year after year.

D C
Running over the same old ground but have we found

Am G
The same old fears? Wish you were here.


Guitar 1 repeats intro under third solo

Solo 3:
Guitar 2:

e|--------10-10--12-10------------10/12-10-10--|--12/14-12---------------------------
B|--101/2--------------12p10p8--8--------------|----------12/14-14----121/4-14/12-10-
G|---------------------------------------------|-------------------12----------------
D|---------------------------------------------|-------------------------------------
A|---------------------------------------------|-------------------------------------
E|---------------------------------------------|-------------------------------------

e|--------10-10----------10-10----------10-10------------|-------12-12----------12-12
B|--10/12-------10-10/12-------10-10/12------10-10/12-12-|-12/14-------12-12/14------
G|-------------------------------------------------------|---------------------------
D|-------------------------------------------------------|---------------------------
A|-------------------------------------------------------|---------------------------
E|-------------------------------------------------------|---------------------------

e|-----------12-12-------------|-------10-10----------10-10----------10-10-----------
B|--12-12/14-------12-12/14-10-|-10/12-------10-10/12-------10-10/12------10-10/12-12
G|-----------------------------|-----------------------------------------------------
D|-----------------------------|-----------------------------------------------------
A|-----------------------------|-----------------------------------------------------
E|-----------------------------|-----------------------------------------------------

e|--------12-12----------12-12----------12-(14)b12-(12)b10---------------------------
B|--12/14-------12-12/14-------12-12/14--------------------10------------------------
G|-----------------------------------------------------------------------------------
D|-----------------------------------------------------------------------------------
A|-----------------------------------------------------------------------------------
E|-----------------------------------------------------------------------------------

Then guitar 2 accompanies guitar 1, ie. both play the intro one more time both ritarding
and finishing on a single G strum.
Calificar esta versión:
Aviso: Este fichero es trabajo propio de su transcriptor y representa su interpretación personal de la canción. El material contenido en esta página es para exclusivo uso privado, por lo que se prohibe su reproducción o retransmisión, así como su uso para fines comerciales.