Wish You Were Here, Pink Floyd (acordes) (ver 5)

Autor: ponkiii | 25333 visualizaciones

amcddog
 Intro:
  		Strum a few Times   Strum a few Times	
	    	     ^V^                 ^V^
e---------------------3-------------------3---|
B---------------------3-------------------3---|
G---------------------0-------0-----------0---|
D-------------0--2----0----2-----2--------0---|   * 2            
A------0h2------------2-------------------2---|     
E---3-----------------x-------------------3---|      

                Strum a few Times               Strum a few Times
                     ^V^                              ^V^
e---------------------3--------------------------------3---|
B---------------------3--------------------------------3---|
G---------------------0--------------------------------2---|
D-------------0--2----0------2-----0-------------------2---|   
A------0h2------------2------------------2-------0-----0---|
E---3-----------------x--------------------------------0---|

 

. . . . . 



C                        D     Am

So, so you think you can tell Heaven from Hell,
                G
blue skies from pain.
                      D                       C 
Can you tell a green field from a cold steel rail?
               Am
A smile from a veil?
                     G
Do you think you can tell?
                        C                      D
And did they get you to trade your heroes for ghosts?
              Am 
Hot ashes for trees?
              G    
Hot air for a cool breeze?
                 D
Cold comfort for change?
            C                              Am                                  
And did you exchange a walk on part in the war
                     G
for a lead role in a cage?
C                               D
How I wish, how I wish you were here.
            Am
We`re just two lost souls swimming in a fish bowl,
           G
year after year,
D               
Running over the same old ground. 
C                                Am
What have we found? The same old fears.
              G
Wish you were here 

Comentarios del colaborador: esta es una gran cancion y sobre todo es fasil de tocar

Calificar esta versión:
Aviso: Este fichero es trabajo propio de su transcriptor y representa su interpretación personal de la canción. El material contenido en esta página es para exclusivo uso privado, por lo que se prohibe su reproducción o retransmisión, así como su uso para fines comerciales.