Wish You Were Here, Pink Floyd (tablatura) (ver 4)

Autor: seezc | 45682 visualizaciones

Aqui, en mi primer cancion agregada, la verdadera y unica digitación de la intro y el solo de wish you were here, un temaso de pink floyd. (Nota: las notas que pongo con un * están ligadas unas con otras, la barrita / signfica slide, y | significa que empieza otro compás)

Intro
e|-----------|-------3---3-3----3-3-------|------3----3---3-----
B|-----------|-------3---3-3----3-3-------|----3-3----3---3-----
G|-----------|----0--0---0-0-0-------0----|----0-0----0---------
D|---------0-|--2------------2----------2-|-0------0------------
A|-----0*2---|----------------------------|---------------------
E|-----------|----------------------------|--------3---------3--

e|--------|-------3---3---3-3--3--------|-----3----3---3-------|
B|--------|----3--3---3---3-3--3--------|---3-3----3---3-------|
G|--------|----0--0---0---0-0--0----0---|---0-0----0-----------|
D|------0-|-2---------------------2---2-|-0-----0-------------0|
A|--0*2---|-----------------------------|------------------0*2-|
E|--------|-----------------------------|-------3--------3-----|

e|----3-3-3--3-3-3-3---------|-----3-3-3---3-3-3---------|----3-
B|----3-3-3--3-3-3-3---------|-----3-3-3---3-3-3---------|----3-
G|----0-0-0--0-0-0-0---------|-----0-0-0---0-------------|----0-
D|-2------------------2--0---|---2-----2---------------0-|-2----
A|-------------------------2-|-0------------------0*2----|------
E|---------------------------|---------------------------|------

e|-3-3---3-3-3-3----------|-------3--------3-------------------|
B|-3-3---3-3-3-3----------|-------3--------3-------------3-----|
G|-0-0---0-0-0-0----------|-------0----------------3---0-0-----|
D|----------------2--0----|---2-2-----2-------2-0--0---0-------|
A|----------------------2-|-0----------------------0*2---------|
E|------------------------|------------------------------------|


Entra otra guitarra haciendo el solo, mientras la primera continua con la misma intro,

e|--------------------------|----------|--3/5-5/3---------------
B|------3----5---3----------|----------|--3/5-5/3-3/5-5/3---3/5-
G|--2/4--------4-----4*2--0-|----------|----------2/4-4/2*0-2/4-
D|--------------------------|-----0-0--|------------------------
A|--------------------------|-0-2------|------------------------
E|--------------------------|----------|------------------------

e|---------|-----------------------|------------------|---------
B|-5/3--4--|------3---5----5-3---3-|---------3-5------|-----3-5-
G|-4/2--5--|--2/4---4----------4---|-2----4------4--2-|-2/4--4--
D|---------|-----------------------|------------------|---------
A|---------|-----------------------|------------------|---------
E|---------|-----------------------|------------------|---------

e|------------|-------------------------------3--|
B|--5--5-3-5--|----------------------------0--3--|
G|------------|--2------------4--2---------0--0--|
D|------------|----------------------------0-----|
A|------------|----------------------------------|
E|------------|----------------------------------|

Luego el verso es una seguidilla de acordes: 

G - C/G - D/F# - Am - Am/E - Am

con la siguiente rítmica: negra, semicorchea(x2), corchea, semicorchea(x2), corchea...

Comentarios del colaborador: Cualkier duda que tengan o si quieren adquirir la tablatura en guitar pro, comuniquensen seezc05@hotmail.com

Calificar esta versión:
Aviso: Este fichero es trabajo propio de su transcriptor y representa su interpretación personal de la canción. El material contenido en esta página es para exclusivo uso privado, por lo que se prohibe su reproducción o retransmisión, así como su uso para fines comerciales.