A Dios Le Pido, Juanes (tablatura) (ver 4)

Autor: Anónimo | 25703 visualizaciones

BUENO SE QUE ESTE TAB YA ESTA COMO 2 O TRES VECES PERO CONSIDERO 
QUE ESTA ES LA MEJOR CON VARIAS CORRECcIONES PORQUE LAS DEMAS 
SON MUY PARECIDAS GRACIAS Y OJALA Y LA TOMEN EN CUENTA!!!!!!!!!
1-5--5-5--8-8-8--5-5-5--5-5-------------------------------------
2-5--5-5--5-5-5--5-5-5--5-5-------------------------------------
3-5--5-5--5-5-5--5-5-5--5-5----4—6-6-4----4-6-6-4---4-6-6-4-----
4----------------------------6--------- 6 ------- 6---------6-7-
5---------------------------------------------------------------
6---------------------------------------------------------------


1-5--5-5--8-8-8--5-5-5--5-5-------------------------------------
2-5--5-5--5-5-5--5-5-5--5-5-------------------------------------
3-5--5-5--5-5-5--5-5-5--5-5----4—6-6-4----4-6-6-4---4-6-6-4-----
4----------------------------6--------- 6 ------- 6---------6-7-
5---------------------------------------------------------------
6---------------------------------------------------------------

1---------------------------------------------------------------
2-------5-----5---------5----5----------------------------------
3-----5-----5-----5---5---5-----7--4------4-6-6-4---4-6-6-4-----
4--7---------------7-----------------6--6---------6----------6-7
5---------------------------------------------------------------
6---------------------------------------------------------------

1------------5-----5---5-4----------7-10-8-7----8-7-------------
2------5---5---5-----5------------9----------10------10-9-10----
3----5---5-------5-------------9-9------------------------------
4--7------------------------------------------------------------
5---------------------------------------------------------------
6----------------------------------------------------------------------------------------------
Am
Que mis ojos se despierten   con la luz de tu mirada



1----------------5-------------5--------------5--------------5----------------------------------
2----------------5-------------5--------------5--------------5----------------------------------
3----------------5-------------5--------------5--------------5----------------------------------
4-------------------------------------------------------------------------------------------------
5----7--------------7------------7----------------7----------------------------------------------
6----5--------------5------------5----------------5---------------------------------------------


                   E
yo a Dios le pido
1----------------------------------------------------------------------------------------------
2------------------9------------9------------9------------9----------------------------------------
3------------------9------------9------------9------------9---------------------------------------
4------------------9------------9------------9------------9----------------------------------------
5-------------7-----------7-------------7------------7--------------------------------------------
6----------------------------------------------------------------------------------------------





Am                 Dm
que mi madre no se muera
               E
y que mi padre me recuerde
a Dios le pido

1-------------5--------------5-----------------------------------------------------------------------
2-------------5--------------6------------9----------9----------------------------------------------
3-------------5--------------7------------9----------9----------------------------------------------
4----------------------7------------------9----------9----------------------------------------------
5------7---------------5-----------7------------7---------------------------------------------------
6------5---------------------------------------------------------------------------------------------







Am                 Dm
Que te quedes a mi lado
                E 
y que más nunca te me vayas mi vida
a Dios le pido

1-------------5--------------5-----------------------------------------------------------------------
2-------------5--------------6------------9----------9----------------------------------------------
3-------------5--------------7------------9----------9----------------------------------------------
4----------------------7------------------9----------9----------------------------------------------
5------7---------------5-----------7------------7---------------------------------------------------
6------5---------------------------------------------------------------------------------------------
Am              Dm
que mi alma no descanse
             E
cuando de amarte se trate mi cielo
a Dios le pido

1-------------5--------------5-----------------------------------------------------------------------
2-------------5--------------6------------9----------9----------------------------------------------
3-------------5--------------7------------9----------9----------------------------------------------
4----------------------7------------------9----------9----------------------------------------------
5------7---------------5-----------7------------7---------------------------------------------------
6------5---------------------------------------------------------------------------------------------

Am
Por los días que me quedan
                         E 
y las noches que aun no llegan
yo a Dios le pido

1-------------5--------------5-----------------------------------------------------------------------
2-------------5--------------6------------9----------9----------------------------------------------
3-------------5--------------7------------9----------9----------------------------------------------
4----------------------7------------------9----------9----------------------------------------------
5------7---------------5-----------7------------7---------------------------------------------------
6------5---------------------------------------------------------------------------------------------

Am                   Dm
por los hijos de mis hijos
            E    
y los hijos de tus hijos
a Dios le pido

1-------------5--------------5-----------------------------------------------------------------------
2-------------5--------------6------------9----------9----------------------------------------------
3-------------5--------------7------------9----------9----------------------------------------------
4----------------------7------------------9----------9----------------------------------------------
5------7---------------5-----------7------------7---------------------------------------------------
6------5---------------------------------------------------------------------------------------------

Am                 Dm     
Que mi pueblo no derrame tanta sangre
   E
y se levante mi gente
a Dios le pido

1-------------5--------------5-----------------------------------------------------------------------
2-------------5--------------6------------9----------9----------------------------------------------
3-------------5--------------7------------9----------9----------------------------------------------
4----------------------7------------------9----------9----------------------------------------------
5------7---------------5-----------7------------7---------------------------------------------------
6------5---------------------------------------------------------------------------------------------
Am                 Dm
que mi alma no descanse
             E
cuando de amarte se trate mi cielo
a Dios le pido






OUTRO:
Am                 E
Un segundo mas de vida para darte
     G           D
y mi corazón entero entregarte
Am                 E
un segundo mas de vida para darte
     G              D
y a tu lado para siempre yo quedarme
FIGURA 2 outro
1------------------------------------------------------------------------------------------------------
2------------------10---------------------9-------------------8-----------------7----------------------
3----------9------------9--------9-----------9--------7---------7------7---------7---------------------
4----7---------7------------6-------6------------5-------5---------4------4----------------------------
5------------------------------------------------------------------------------------------------------
6------------------------------------------------------------------------------------------------------
Am                                                 E
un segundo mas de vida ….          YOOOO  



1-------5---------------------------------0------------------------------------------------------
2-------5---------------------------------0------------------------------------------------------
3-------5---------------------------------1------------------------------------------------------
4-------7---------------------------------2------------------------------------------------------
5-------7---------------------------------2------------------------------------------------------
6-------5---------------------------------0------------------------------------------------------



C                       G
Que si me muero sea de amor

                        Am
y si me enamoro sea de vos
                           E
y que de tu voz sea este corazón
todos los días a Dios le pido
C                       G
que si me muero sea de amor
                        Am
y si me enamoro sea de vos
                           E
y que de tu voz sea este corazón
todos los días a Dios le pido
            Am
a Dios le pido



2 veces
1---------- 8--------8-------------------------8---- 8------------------------------------------
2-----------8--------8--------- 12---12------10---10----12-----12--------------------------------
3-----------9--------9--------- 12---12------9-----9----12-----12-------------------------------
4---10--  10-------10---------12---12-------------------12-----12----------------------------
5--------------------------10--------------------------------------------------------------------
6----------------------------------------------------------------------------------------------



                        Am
y si me enamoro sea de vos
                           E
y que de tu voz sea este corazón
todos los días a Dios le pido
C                       G
que si me muero sea de amor
                        Am
y si me enamoro sea de vos
                           E
y que de tu voz sea este corazón
todos los días a Dios le pido
            Am
a Dios le pido


1-------5---------------------------------------------------------------------------------------
2-------5---------------------------------------------------------------------------------------
3-------5---------------------------------------------------------------------------------------
4-------7---------------------------------------------------------------------------------------
5-------7---------------------------------------------------------------------------------------
6-------5---------------------------------------------------------------------------------------

Fuente original: LaCuerda
Colaborador original: cristian mercado rodriguez [rodguit@hotmail.com]
Calificar esta versión:
Aviso: Este fichero es trabajo propio de su transcriptor y representa su interpretación personal de la canción. El material contenido en esta página es para exclusivo uso privado, por lo que se prohibe su reproducción o retransmisión, así como su uso para fines comerciales.
Más versiones de A Dios Le Pido, Juanes
A Dios Le Pido
acordes
A Dios Le Pido (ver 2)
acordes
A Dios Le Pido (ver 3)
acordes
A Dios Le Pido (ver 4)
acordes
A Dios Le Pido (ver 5)
acordes
A Dios Le Pido
tablatura
A Dios Le Pido (ver 2)
tablatura
A Dios Le Pido (ver 3)
tablatura
A Dios Le Pido (ver 4)
tablatura
A Dios Le Pido (ver 5)
tablatura
A Dios Le Pido (ver 6)
tablatura
A Dios Le Pido (ver 7)
tablatura
A Dios Le Pido
bajo
Descubre más canciones de Juanes