A Dios Le Pido, Juanes (acordes) (ver 5)

Autor: ALUCARDXDC | 25415 visualizaciones

amdme7
E|-5-5-5-5-8-8-8-8-5-5-5-5--------------------------|
B|-5-5-5-5-5-5-5-5-5-5-5-5--------------------------|
G|-5-5-5-5-5-5-5-5-5-5-5-5----4-7-4----4-7-4--------|     2X
D|--------------------------6--------6--------6-7---|
A|--------------------------------------------------|
E|--------------------------------------------------|

E|--------------------------------------------------|
B|-----5-5-----5-5----------------------------------|
G|---5-------5-----7-4-------4-7-4---4-7-4----------|
D|-7-------7-----------6~--6-------6--------6-7~----|
A|--------------------------------------------------|
E|--------------------------------------------------|

E|----------5--5-4-0---7-10-8----8-7----------------|
B|-----5--5--5--------9-------10-----9-10-9~--------|
G|---5--5-------------------------------------------|
D|-7------------------------------------------------|
A|--------------------------------------------------|
E|--------------------------------------------------|




Am E7 Que mis ojos se despierten, con la luz de tu mirada, yo Am A dios le pido ! Am E7 que mi madre no se muera y que mi padre me recuerde, Am A dios le pido ! Am Dm E7 Que te quedes a mi lado y más nunca te me vayas mi vida, Am A dios le pido ! Am Dm E7 que mi alma no descanse cuando de amarte se trate, mi cielo, E7 A dios le pido ! Am E7 por los días que me quedan y las noches que aún no llegan, yo Am A dios le pido ! Am E7 por los hijos de mis hijos y los hijos de tus hijos, Am A dios le pido ! Am Dm E7 que mi pueblo no derrame tanta sangre y se levante mi gente, Am A dios le pido ! Am Dm E7 que mi alma no descanse cuando de amarte se trate mi cielo, Am A dios le pido !

Comentarios del colaborador: a si me la paso un amigo y me parece que esta bien sacada espero les guste

Calificar esta versión:
Aviso: Este fichero es trabajo propio de su transcriptor y representa su interpretación personal de la canción. El material contenido en esta página es para exclusivo uso privado, por lo que se prohibe su reproducción o retransmisión, así como su uso para fines comerciales.
Más versiones de A Dios Le Pido, Juanes
A Dios Le Pido
acordes
A Dios Le Pido (ver 2)
acordes
A Dios Le Pido (ver 3)
acordes
A Dios Le Pido (ver 4)
acordes
A Dios Le Pido (ver 5)
acordes
A Dios Le Pido
tablatura
A Dios Le Pido (ver 2)
tablatura
A Dios Le Pido (ver 3)
tablatura
A Dios Le Pido (ver 4)
tablatura
A Dios Le Pido (ver 5)
tablatura
A Dios Le Pido (ver 6)
tablatura
A Dios Le Pido (ver 7)
tablatura
A Dios Le Pido
bajo
Descubre más canciones de Juanes