A Dios Le Pido, Juanes (tablatura) (ver 7)

Autor: lawbuiles | 38189 visualizaciones

A Dios le pido:


e|-------------------------------------|
B|-------1---------1---------1---------|
G|--2-2-----2-2-2-----2-2-2------2-2-1-|
D|-------------------------------------|
A|-------------------------------------|
E|-------------------------------------|


e|-------------------------------------|
B|--0-0-3-0-0-0-3-0-0-0-3-0-1----------|
G|-----------------------------2-------|
D|-------------------------------------|
A|-------------------------------------|
E|-------------------------------------|


e|-------------------------------------|
B|-------1---------1---------1---------|
G|--2-2-----2-2-2-----2-2-2-----2-2-1--|
D|-------------------------------------|
A|-------------------------------------|
E|-------------------------------------|


e|-------------------------------------|
B|----------0-3-1-0-----1-0------------|
G|-------1-----------2-------2-1-2-----|
D|--2-2--------------------------------|
A|-------------------------------------|
E|-------------------------------------|




Am
Que mis ojos se despierten
                   E
con la luz de tu mirada
yo a Dios le pido

Am                 Dm
que mi madre no se muera
               E
y que mi padre me recuerde
a Dios le pido

Am                 Dm
Que te quedes a mi lado
                E
y que más nunca te me vayas mi vida
a Dios le pido
Am              Dm
que mi alma no descanse
             E
cuando de amarte se trate mi cielo
a Dios le pido

Am
Por los días que me quedan
                         E
y las noches que aun no llegan
yo a Dios le pido

Am                   Dm
por los hijos de mis hijos
            E
y los hijos de tus hijos
a Dios le pido

Am                 Dm
Que mi pueblo no derrame tanta sangre
   E
y se levante mi gente
a Dios le pido
Am                 Dm
que mi alma no descanse
             E
cuando de amarte se trate mi cielo
a Dios le pido

Am                 E
Un segundo mas de vida para darte
     G           D
y mi corazón entero entregarte
Am                 E
un segundo mas de vida para darte
     G              D
y a tu lado para siempre yo quedarme
Am
un segundo mas de vida
E
yo a Dios le pido

C                       G
Que si me muero sea de amor
                        Am
y si me enamoro sea de vos
                           E
y que de tu voz sea este corazón
todos los días a Dios le pido
C                       G
que si me muero sea de amor
                        Am
y si me enamoro sea de vos
                           E
y que de tu voz sea este corazón
todos los días yoooooo a Dios le pido
            Am
a Dios le pido







Si algo esta mal, lo siento mucho, es la primera canción que subo y la saco por propio oído. espero que les guste, y gracias por tomar algo de su tiempo para tocarla.
por favor, si no les gusto, no manifiesten su odio o lo que sea en los comentarios, por favor guárdate los malos comentarios.
Calificar esta versión:
Aviso: Este fichero es trabajo propio de su transcriptor y representa su interpretación personal de la canción. El material contenido en esta página es para exclusivo uso privado, por lo que se prohibe su reproducción o retransmisión, así como su uso para fines comerciales.
Más versiones de A Dios Le Pido, Juanes
A Dios Le Pido
acordes
A Dios Le Pido (ver 2)
acordes
A Dios Le Pido (ver 3)
acordes
A Dios Le Pido (ver 4)
acordes
A Dios Le Pido (ver 5)
acordes
A Dios Le Pido
tablatura
A Dios Le Pido (ver 2)
tablatura
A Dios Le Pido (ver 3)
tablatura
A Dios Le Pido (ver 4)
tablatura
A Dios Le Pido (ver 5)
tablatura
A Dios Le Pido (ver 6)
tablatura
A Dios Le Pido (ver 7)
tablatura
A Dios Le Pido
bajo
Descubre más canciones de Juanes