A Dios Le Pido, Juanes (tablatura) (ver 3)

Autor: Anónimo | 34690 visualizaciones

Esta es la *ORIGINAL* intro de A Dios le pido, vale la pena            
Aprendersela. soy de CALI COLOMBIA.                
                    
                    <<***Intro*>>>>>>> 

E--5-5-5--8-8-8--5-5-5--4-4--------------------------------
B--5-5-5--5-5-5--5-5-5--5-5------0-1h3-1-0-1h3-1-0-1h3-1---
G----------------------------1-2-------------------------2-
D----------------------------------------------------------
A----------------------------------------------------------
E----------------------------------------------------------

E--5-5-5--8-8-8--5-5-5--4-4--------------------------------
B--5-5-5--5-5-5--5-5-5--5-5------0-1h3-1-0-1h3-1-0-1h3-1---
G----------------------------1-2-------------------------2-
D----------------------------------------------------------
A----------------------------------------------------------
E----------------------------------------------------------

E------0---0-------0---0---------
B----1---1---1---1---1---1-------
G--2-----------2-----------2-2-0-
D--------------------------------
A--------------------------------
E--------------------------------

E------------------------------------0---0-5-0-0-5-0-5-0-0-
B------0-1h3-1-0-1h3-1-0-1h3-1-----1---1-------------------
G--1-2-------------------------2-2-------------------------
D----------------------------------------------------------
A----------------------------------------------------------
E----------------------------------------------------------

E-------7-10-8-7----8-7----------
B-----9----------10-----10-9-10--
G---9----------------------------
D--------------------------------
A--------------------------------
E--------------------------------

Sacada a oido por Gustavo A Hernandes, Guty306@hotmail.com

Fuente original: LaCuerda
Colaborador original: Jhon Alexander Latorre [soloheavy@hotmail.com]
Calificar esta versión:
Aviso: Este fichero es trabajo propio de su transcriptor y representa su interpretación personal de la canción. El material contenido en esta página es para exclusivo uso privado, por lo que se prohibe su reproducción o retransmisión, así como su uso para fines comerciales.
Más versiones de A Dios Le Pido, Juanes
A Dios Le Pido
acordes
A Dios Le Pido (ver 2)
acordes
A Dios Le Pido (ver 3)
acordes
A Dios Le Pido (ver 4)
acordes
A Dios Le Pido (ver 5)
acordes
A Dios Le Pido
tablatura
A Dios Le Pido (ver 2)
tablatura
A Dios Le Pido (ver 3)
tablatura
A Dios Le Pido (ver 4)
tablatura
A Dios Le Pido (ver 5)
tablatura
A Dios Le Pido (ver 6)
tablatura
A Dios Le Pido (ver 7)
tablatura
A Dios Le Pido
bajo
Descubre más canciones de Juanes