A Dios Le Pido, Juanes (acordes) (ver 2)

Autor: juanroulet | 19106 visualizaciones

ritmo latino entrecortado
intro
guitarra 1Am(pero en 5 traste con seilla), E
guitarra 2 cuando empieza la nota E se toca este requintillo
e------------------------------------------/
b------------------------------------------/
g-------7-7-------7-7------7----------------/
d-7--9-----7--9------7--9----9--7-----------/
a------------------------------------------/
E------------------------------------------/ x (2)
despues va este requintillo
e--------------------------------------------/
b-------5---5-----5-------------------/
g--2--5---5---5-5---5-4-------7-7------7-7------7--/
d------------------------7--9-----7--9-----7--9------9-7/  
a------------------------------------------/
E------------------------------------------/

e-----------5-----5---------------------------/
b-------5-----5-----5------------------------/
g--2--5---5-----5-----5--4--------------------------/
d------------------------------------------/  X 2
a------------------------------------------/
E------------------------------------------/
despues de esto rapidamente tienen que  hacer esto lo mas rapido que puedan
practiquenlo
e------------7-8-10--8--7---------------------/
b-----8--10---------------10--8-8*10---------------/
g---9-------------------------------------/
d------------------------------------------/  
a------------------------------------------/
E------------------------------------------/


Am                                    LA CORRECION ES EN EL PRECORO Y 

Que mis ojos se despierten            COROS.AGREGANDO ACORDES EN MAJ7,
                   E 
con la luz de tu mirada               COMO VIENEN EN LA CANCIÓN ORIGINAL.
yo a Dios le pido                     correcion a   endo183@msn.com

Am                 Dm                                  Lammaj7
que mi madre no se muera
               E                             e  0               
y que mi padre me recuerde                   b  1
a Dios le pido                               g  1
                                             d  2
Am                 Dm                        a  0
Que te quedes a mi lado                      e  x
                E  
y que más nunca te me vayas mi vida                    Gmaj7
a Dios le pido 
Am              Dm                           e  2
que mi alma no descanse                      b  0
             E                               g  0
cuando de amarte se trate mi cielo           d  0
a Dios le pido                               a  2
                                             e  3
Am
Por los días que me quedan 
                         E                              Am/f#
y las noches que aun no llegan 
yo a Dios le pido 
                                             e  0
Am                   Dm                      b  1
por los hijos de mis hijos                   g  2   
             E                               d  2
y los hijos de tus hijos                     a  0
a Dios le pido                               e  2

Am                 Dm      
Que mi pueblo no derrame tanta sangre                    Fmaj7
   E 
y se levante mi gente                         e  0
a Dios le pido                                b  1
Am                 Dm                         g  2
que mi alma no descanse                       d  3
             E                                a  x
cuando de amarte se trate mi cielo            e  x
a Dios le pido

Am                 Ammaj7      
Un segundo mas de vida para darte
     G         Gmaj7
y mi corazón entero entregarte 
Am                 Ammaj7
un segundo mas de vida para darte 
     G             Gmaj7
y a tu lado para siempre yo quedarme
Fmaj7
un segundo mas de vida 
E
yo a Dios le pido

C                       G
Que si me muero sea de amor
                        Am
y si me enamoro sea de vos
                        G
y que de tu voz sea este corazón 

todos los días a Dios le pido 
C                       G 
que si me muero sea de amor 
                        Am
y si me enamoro sea de vos
            Am/f#            G 
y que de tu voz sea este corazón
todos los días a Dios le pido 
            Am
a Dios le pido

Comentarios del colaborador: yo no pienso se que mi cancion esta buena.

Calificar esta versión:
Aviso: Este fichero es trabajo propio de su transcriptor y representa su interpretación personal de la canción. El material contenido en esta página es para exclusivo uso privado, por lo que se prohibe su reproducción o retransmisión, así como su uso para fines comerciales.
Más versiones de A Dios Le Pido, Juanes
A Dios Le Pido
acordes
A Dios Le Pido (ver 2)
acordes
A Dios Le Pido (ver 3)
acordes
A Dios Le Pido (ver 4)
acordes
A Dios Le Pido (ver 5)
acordes
A Dios Le Pido
tablatura
A Dios Le Pido (ver 2)
tablatura
A Dios Le Pido (ver 3)
tablatura
A Dios Le Pido (ver 4)
tablatura
A Dios Le Pido (ver 5)
tablatura
A Dios Le Pido (ver 6)
tablatura
A Dios Le Pido (ver 7)
tablatura
A Dios Le Pido
bajo
Descubre más canciones de Juanes