Hotel California, Eagles (tablatura) (ver 9)

Autor: lenin_1994@hotmail.com | 20905 visualizaciones

HOTEL CALIFORNIA EN VIVO (TAB)
Esta tab ya estaba solo la modifique un poco creo que si sonaba bien solo que ay que mejorar siempre y no conformarse ojala alguien la componga mejor
Eso es todo cualquier comentario mi correo (le_on1994@hotmail.com) Viva  MÉXICO.
Bm9 A/B                                  Fm#        
|-2-------------------------------------|-9-------------------------------|
|-3---------------2-3-5-7-7/87-5/7~~~~--|-10-------3-2-0------------------|
|-2--4-4h6p4p3-4------------------------|-11---2-4------4-2-0-------------|
|-4-------------------------------------|-11-----------------4/2----------|
|-2-------------------------------------|-9---------------------5/7/2-----|
|-2-------------------------------------|-9-------------------------------|

 Em                             |----18veces--| 
-0--------0------0------0------0|---7p0---10p0-|-----7-6-7-9-10-9-10-12/14-2|
-0------0------0------0------0--|--8-----8-----|---8-----------------------2|
-0----0------2------4------7----|-9-----9------|-9-------------------------3|
-2--2------4------5------9------|--------------|-----------------2----------|
-2------------------------------|--------------|---------------4------------|
-0------------------------------|--------------|-------------2--------------|
Luego aquí se espera un tiempo aproximado de 10 segundos.

Bm9 A/B                                   Fm#
|-2----2h3p2---2-2---2---|-------------|-9------------------------
|-3----------5-----5---3-|-5p3---3-----|-10------3p2---2--2-------
|-2--4-------------------|-----4---2/4-|-11---2-4-----4------2--4-
|-4----------------------|-------------|-11-----------------------
|-2----------------------|-------------|-9------------------------
|-2----------------------|-------------|-9------------------------

Em
|-----------------7--9-10-9-10-|-12-----------0--------0--------0-
|-----5-8--7-7-8h10------------|------------0--------0--------0---
|-6-7--------------------------|----------0--------2--------4-----
|------------------------------|-------2--------4--------5--------
|------------------------------|----------------------------------
|------------------------------|----------------------------------

F#7
-------0-7p0---10-12-10----|---9-9h10p9/7-7h9p7/6--3-2-2-2-3-2--0-2----------|
-----0------------------12-|----------------------------------------3--2-----|
---7-----------------------|---------------------------------------------4-3-|
-9-----------9-------------|-------------------------------------------------|
---------------------------|-------------------------------------------------|
---------------------------|-------------------------------------------------|
Aquí ya empieza la versión normal:
   Am#              F#                A         E
|--------2-------|-------2------|-------0-----|-------0------|
|-----3---3---3--|-----2---2--2-|-----2--2-2--|----0----0--0-|
|---4---4---4----|---3--3---3---|---2--2--2---|--1---1---1---|
|----------------|--------------|-------------|--------------|
|-2--------------|--------------|-0-----------|--------------|
|----------------|-2------------|-------------|-0------------|
        G             D                 Em              F#
|--------3------|--------2-------|--------0-------|--------2--|
|-----3----3--3-|-----3----3---3-|----0-----0---0-|-----2-----|
|---0--0----0---|---2---2----2---|--0---0-----0---|---3---3---|
|---------------|--0-------------|----------------|-----------|
|---------------|----------------|----------------|-----------|
|-3-------------|----------------|-0--------------|--2--------|







Luego aquí es el bajeo con la guitarra como fondo 
Bm F# A E
|----------|----------------|-----------|------------0-|
|----------|----------------|-----------|--------------|
|----------|----------------|-----------|-------1------|
|------2-4-|-2-----0h2p0----|-----------|-----0--------|
|-5--------|-------------4--|-4----5-7--|--2-----------|
|----------|----------------|-----------|--------------|
G D Em F#
|-----------------|---------------|----------|
|-----------------|---------------|----------|
|-----------------|---------------|----------|
|-----------------|-2/4-2-2-4-5-4-|-2----4-5-|
|-2----4---5-0----|---------------|----------|
|-----------------|---------------|----------|  

Bm                                F#
On a dark desert highway, cool wind in my hair
A                                  E
Warm smell of colitas rising up through the air
G                                  D
Up ahead in the distance, I saw a shimmering light
Em
My head grew heavy and my sight grew dim
       F#
I had to stop for the night

Bm                              F#
There she stood in the doorway; I heard the mission bell
A                                   E
And I was thinking to myself this could be heaven or this could be hell
G                                        D
Then she lit up a candle, and she showed me the way
Em                                                 F#
There were voices down the corridor, I thought I heard them say

4---------4--
5---1-2-4-4--
6-2----------
G                         D *1st time *second time
Welcome to the Hotel California
3-2-2?2h4--4/6-4-2-4- 
4--------------------
5--------------------
Em                      Bm7
Such a lovely place, such a lovely face
3---------------------------------
4---------1-3/4-4-4/6-4-4-2-2-----
5?1-2-3-4-------------------------

G                                    D
(1)Plenty of room at the Hotel California E|-9--9-/7-7-7-7/5-5-5
1-8--8---8/6-6/5-5--
2-10-10-10/8-8/6-6--
3-------------------
(2)They livin` it up at the Hotel California E|-9--9--9-/7-7-7/5-5
1-8--8---8/6-6/5-5--
2-10-10-10/8-8/6-6--



Em                       F#
(1)Any time of year (any time of year) you can find it here
(2)What a nice surprise (what a nice surprise) bring your alibis


Her mind is Tiffany twisted, she got the Mercedes bends
She got a lot of pretty, pretty boys that she calls friends
How they dance in the courtyard, sweet summer sweat
Some dance to remember, some dance to forget

So I called up the captain; "Please bring me my wine."
"We haven`t had that spirit here since nineteen sixty-nine"
And still those voices are calling from far away
Wake you up in the middle of the night, just to hear them say
Coro: 
4---------5--
5---1-2-4-5--
6-2----------
G                         D *1st time *second time
Welcome to the Hotel California
1-8--8---8/6-6/5-5--
2-10-10-10/8-8/6-6--
3-------------------
Em                      Bm7
Such a lovely place, such a lovely face
3---------------------------------
4---------1-3/4-4-4/6-4-4-2-2-----
5?1-2-3-4-------------------------
G                                    D
(1)Plenty of room at the Hotel California E|-9--9-/7-7-7-7/5-5-5
1--7-7-7/5-5-5/4-4-4-------------------
2--9-9-9/7-7-7/5-5-5-------------------

(2)They livin` it up at the Hotel California E|-9--9--9-/7-7-7/5-5
1--7-7-7/5-5-5/4-4-4-------------------
2--9-9-9/7-7-7/5-5-5-------------------
 En esta parte va arpegiado: 	
                   Bm#              F#                
     |--------2---------------|-------2------|
     |-----3---3---3----------|-----2---2--2-|
     |---4---4---4------------|---3--3---3---|
     |------------------------|--------------|
     |-2----------------------|--------------|
     |------------------------|-2------------|

Mirrors on the ceiling, the pink champagne on ice
          A                       E
|-------0-------------------|-------0------|
|-----2--2-2----------------|----0----0--0-|
|---2--2--2-----------------|--1---1---1---|
|---------------------------|--------------|
|-0-------------------------|--------------|
|---------------------------|-0------------|

And she said "We are all just prisoners here, of our own device"
        G                      D              
|--------3-------------|--------2-------|
|-----3----3?3---------|-----3----3---3-|
|---0--0----0----------|---2---2----2---|
|----------------------|--0-------------|
|----------------------|----------------|
|-3--------------------|----------------|

And in the master`s chambers, they gathered for the feast



        Em                          F#                 
|--------0----------------------|--------2--|                                       |----0-----0---0----------------|-----2-----|
|--0---0-----0------------------|---3---3---|
|-------------------------------|-----------|
|-------------------------------|-----------|
|-0-----------------------------|--2--------|

They stab it with their steely knives, but they just can`t kill the beast

Last thing I remember, I was running for the door
I had to find the passage back to the place I was before
"Relax" said the nightman, "We are programmed to receive"
"You can check out anytime you like, but you can never leave"

1st solo:
Bm F#
|-------|---------------------|-----------------|
|-------|---------------------|-----------------|
|-----6-|9--9-9-9-97-6-9-7-6-|-7-6-4-3----------|
|-8-9---|---------------------|-----------------|
|-------|---------------------|-----------------|
|-------|---------------------|-----------------|

A E
|-9-10-12-12-12-12~~~12-10-9---10-9-------|---------------|
|---------------------------12----12-10-9~9~8~8~8-9-12~---|
|---------------------------------------|-----------------|
|---------------------------------------|-----------------|
|---------------------------------------|-----------------|
|---------------------------------------|-----------------|

G D
|---------------------------------|--------------|
|---------------------------------|-3-2----------|
|----------------------------2h4-2|-----4-2-4----|
|--------------2----4-2--5-4------|-----------4--|
|-----0-2--5-4---5----------------|--------------|
|---3-----------------------------|--------------|
--harmonic
Em                          F#
|-0----------------0----0-|---2---------------2-----2--
|---0-------------0----0--|-----2------------2-----2---
|-----0----------0----0---|-------3---------3-----3----
|-------2-------2----2----|---------4------4-----4-----
|---------2----2----2-----|-----------4---4-----4------
|-----------0-------------|-------------2--------------



2nd solo:
Bm
------------------------|----------------------------------------------------|
------------------------|----------------------------------------------------|
------------------9-11--|11h12p119-11----9-11-11h12p119-9h11p97-7h9p76-------|
-9h11p98-9-11-12--------|--------------12----------------------------------9-|
------------------------|----------------------------------------------------|

F# A
|-------------------14-------|------------------------|
|-------12-14-12-11----------|--7-7-7-5-5-5-3-3-2-0---|
|---6-9----------------------|----------------------2-|
|-8----------------------12--|7-----------------------|
|----------------------------|------------------------|
|----------------------------|------------------------|
E G
|-------------------------0--------|--------------------------------3-|
|---3-3h5p32-2h3p2-----------------|----------------------------3-5---|
|-1-------------------2-1----------|------------2-4-4h6p43-4-6--------|
|------------------------------2-4-|-5h7p54-5-------------------------|
|----------------------------------|----------------------------------|
|----------------------------------|----------------------------------|
D Em
|-/5-5-5-5/7-5-3/5-----------------------|-------3p0---7p3-0-10p7----12p10----|
|-/7-7-7-7/8-7-5/7-----------------0h2h3-|-5p0-------0------------11-------12-|
|--------------------------0h1h2h3-------|-----0------------------------------|
|------------------0h2h3h4---------------|------------------------------------|
|----------------------------------------|------------------------------------|
|----------------------------------------|------------------------------------|
F#
|-2-2h3p2---0h2-0-------------------0---|
|-----------3-------3-2h3p2p0-2-3p2-3---|
|---------------------------------------|
|---------------------------------------|
|---------------------------------------|
|---------------------------------------|

Mi parte favorita:
GTR 1
Bm F#
1|-2---2---2---2---2---2-|-0---0---0---0---2/6---
2|--3---3---3---3---3----|--2---2---2---2--------
3|---4---4---4---4---4---|---3---3---3---3-------
GTR 2
1|-0---0---0---0---0---0-|---------------------------------
2|--2---2---2---2---2----|-3-0---3-0---3-0---3-0?3/7-------
3|---2---2---2---2---3---|-----1----1-----1----------------
GTR 1
A E
1|--------------------------|----------------------
2|--3-0---3-0--3-0--3-0---3-|-3---3---3---3---3/7--
3|--------------------------|--2---2---2---2-------
4|------5----5----5----5-5--|---4---4---4---4------

GTR2      aquí en el final es rasgueado     Bm
1|---------------------------------------2-2-2--------|
2|-1--1--1--1--1--3--3--3---3--5---5-----3-3-3--------|                                           3|--0--0--0--0--0--0--0--0---0--0---0----4-4-4--------|
4|---2--2--2--2--2--4--4---4---4--4--4---4-4-4--------|
5|---------------------------------------2-2-2--------|
6|---------------------------------------2-2-2--------|
ESO ES TODO NOS BEMOS EN LA PROXIMA SALUDOS A MI PRIMA DIANA CRISTINA DE TEPEXI Y A JOANNA LIRIOS GARCIA DE  Sta. CLARA HUSILTEPEC
Calificar esta versión:
Aviso: Este fichero es trabajo propio de su transcriptor y representa su interpretación personal de la canción. El material contenido en esta página es para exclusivo uso privado, por lo que se prohibe su reproducción o retransmisión, así como su uso para fines comerciales.