Hotel California, Eagles (bajo) (ver 2)

Autor: starlatin1 | 21301 visualizaciones

Hotel California bass tab
Hotel California, EAGLES
[WEA]
Music and Lyrics by : Don Felder, Glen Frey & Don Henley

Thanks to the French magazine "Guitar Part" and thanks to my ears,
I wrote this tab which is actually MY version -as I play it-.
Any suggestion is welcome ; write to haddadi@enscpb.u-bordeaux.fr
	Fabien HADDADI, November 1995

(I didn't bother myself with the time...Listen to the C.D !) :-)

Symbols :  g : ghost
	  2/5: slide from 2 up 5
           \ : slide down to... from nowhere
	   b : bend 
        (lr) : let ring		 
beat=72

INTRO (play 2 times)

G  ||----------------|----------------|----------------|----------------|
D 4||----------------|----------------|----------------|----------------|
A 4||----------------|9---------------|----------------|7---------------|
E  ||7---------------|----------------|5---------------|----------------|

    |----------------|----------------|----------------|----------------||
    |----------------|----------------|----------------|----------------||
    |----------------|5---------------|----------------|----------------||	
    |3---------------|----------------|0---------------|2---------------||
								drum + +
(play two verses)
VERSES

   ||--------------------------------|--------------------------------|
   ||------9---------9g9--------g4---|------4---------4---------------|
   ||----9---------9-----9---------0-|----4---------4--g4-------------|
   ||7-7-----------------------------|2-2-----------------2-----------|
drum +       +       +       +        +       +       +       +             	
    |--------------------------------|--------------------------------|
    |------7---------7g7-------------|------2---------2---------------|
    |----7---------7-----7------g5-0-|----2---------2--g2-------------|
    |5-5-----------------------------|0-0-----------------0-----------|

    |--------------------------------|------7---------7---------------|
    |------5---------5g5-------------|----7---------7--g7-0-----------|
    |----5---------5-----5------g5-0-|5-5------------------------g2-0-|
    |3-3-----------------------------|--------------------------------|

				     >first time		      <
    |--------------------------------|--------------------------------|
    |------2---------2g2-------------|------4---------4-------4-------|
    |----2---------2-----2------g2-0-|2-2-4---------4-------4---------|
    |0-0-----------------------------|--------------------------------|

    >second time               
    |--------------------------------||
    |------4---------4---------0-2-4-||
    |2-2-4---------4---------4-------||
    |--------------------------------||

CHORUS I (two times)

   ||----------------------------2/--|7---------------7-------7-------|

Comentarios del colaborador: linea de bajo

Calificar esta versión:
Aviso: Este fichero es trabajo propio de su transcriptor y representa su interpretación personal de la canción. El material contenido en esta página es para exclusivo uso privado, por lo que se prohibe su reproducción o retransmisión, así como su uso para fines comerciales.