Hotel California, Eagles (tablatura) (ver 2)

Autor: rovis | 45792 visualizaciones

HOTEL CALIFORNIA 

 hoola esta es la version LIVE de hotel california es lo mejor que pude hacer, disfrutenlo que está buenaaza...

intro:
Bm9 A/B (una A trabaja también) 
|-9-------------------------------------|-X-------------------------------|
|-7---------------2-3-5-7-7/87-5/7~~~~-|-10-------3-2--------------------|
|-7--4-4h6p4p3-4------------------------|-9---2-4------0-2-2h4-2----------|
|-7-------------------------------------|-11----------------------4/2-----|
|-9-------------------------------------|-12--------------------------5/7-|
|-7-------------------------------------|-9-------------------------------|

Em ******REPETIR****** F#7
-7--------0------0------0------0|---7p0---10p0-|-----7-6-7-9-10-9-10-12/14-2|
-8------0------0------0------0--|--8-----8-----|---8-----------------------2|
-9----0------2------4------7----|-9-----9------|-9-------------------------3|
-9--2------4------5------9------|--------------|-----------------2----------|
-X------------------------------|--------------|---------------4------------|
-X------------------------------|--------------|-------------2--------------|

*ENTONCES JUEGAN 5 BARRAS DE PERCUSIÓN:

Bm9 A/B
|-9----2h3p2---2-2---2---|-------------|-X-----------------------
|-7----------5-----5---3-|-5p3---3-----|-10------3p2---2--2------
|-7--4-------------------|-----4---2/4-|-9---2-4-----4------2--4-
|-7----------------------|-------------|-11----------------------
|-9----------------------|-------------|-12----------------------
|-7----------------------|-------------|-9-----------------------

Em
-----------------7--9-10-9-10-|-12----------0--------0--------0-
-----5-8--7-7-8h10------------|------------0--------0--------0---
-6-7--------------------------|----------0--------2--------4-----
------------------------------|-------2--------4--------5--------
------------------------------|----------------------------------
------------------------------|----------------------------------

F#7
-------0-7p0---10-12-10----|---9-9h10p9/7-7h9p7/6--3-2-2-2-3-2--0-2----------|
-----0------------------12-|----------------------------------------3--2-----|
---7-----------------------|---------------------------------------------4-3-|
-9-----------9-------------|-------------------------------------------------|
---------------------------|-------------------------------------------------|
---------------------------|-------------------------------------------------|

la pieza siguiente del *The se repite a través de la canción con las variaciones de menor importancia (capoed en el 7mo traste de una secuencia 12) 

|-----------0-----|------2-----|------0-------|----------0-|----------0-------|
|-------0---------|----0---2-4-|----3-----3---|------0-----|------1-----------|
|-----0---0---0-2-|--2---------|--2-----2---2-|----0---0---|----0-----------0-|
|---2-------------|1-----------|0-------------|--2---------|--2-----2---0h2---|
|-----------------|------------|--------------|4-----------|3-----------------|
|-0---------------|------------|--------------|------------|------------------|

|-------3------|------------0---|-----------2---|
|-----0-----0--|--------1-------|-------0-------|
|---0-----0----|------0---0-----|---0-2---2-----|
|--------------|----2-----------|---------------|
|-2------------|--0-------------|-2-------------|
|-------------3|--------------0-|---------------|

los *This son el bajo funcionado que lleva en la canción.
Bm F# A E
|----------|----------------|-----------|-------------0-|
|----------|----------------|-----------|---------------|
|----------|----------------|-----------|-------1---1---|
|------2-4-|-2-----0h2p0----|-----------|-----0---0-----|
|-5--------|-------------4--|-4----5-7-|2--2-----------|
|----------|----------------|-----------|---------------|
G D Em F#
|-----------------|-------------|----------|-----------|
|-----------------|-------------|----------|-----------|
|-----------------|-------------|----------|-----------|
|-----------------|---0---/4----|-2----4-5-|-4h5p4p2-4-|
|-2----4---5-(5)-|4----0-----5-|----------|-----------|
|-----------------|-------------|----------|-----------|

1st solo:
Bm F#
|-------|---------------------|-7-5-3-2----9-10-|
|-------|---------------------|-----------------|
|-----6-|9--9-9-9-97-6-9-7-6-|-7-6-4-3---------|
|-8-9---|---------------------|-----------------|
|-------|---------------------|-----------------|
|-------|---------------------|-----------------|
A E
|-12-12-12-12~~~12-10-9----10-9-------|-------------|
|-----------------------12------12-10-|-9-----------|
|-------------------------------------|---9---------|
|-------------------------------------|-----9-------|
|-------------------------------------|-------9h11--|
|-------------------------------------|------------2|
G D
|--------------------------------|-----------|
|--------------------------------|-----------|
|----------------------------2/4-|2-----4----|
|--------------2----4-2--5-4-----|---12---4--|
|-----0-2--5-4---5---------------|----|------|
|---3----------------------------|----|------|
|
--harmonica

Em F#7
|-0------0------0-------0-|---2----------2-2-
|---0------0------0-----0-|-----2----------2-
|-----0------0------0---0-|-------3----------
|-------2------2------2---|---------4------4-
|-------------------------|-----------4------
|-------------------------|-2-----------2----
*****dedo de la mano del rodillo w/pick***********

2nd solo:
Bm
------------------------|----------------------------------------------------|
------------------------|----------------------------------------------------|
------------------9-11--|11h12p119-11----9-11-11h12p119-9h11p97-7h9p76---|
-9h11p98-9-11-12-------|--------------12----------------------------------9-|
------------------------|----------------------------------------------------|
------------------------|----------------------------------------------------|
F# A
|-------------------14-------|------------------------|
|-------12-14-12-11----------|--7-7-7-5-5-5-----------|
|---6-9----------------------|--------------7-7-6-4-2-|
|-8---------------------12--|7-----------------------|
|----------------------------|------------------------|
|----------------------------|------------------------|
E G
|-------------------------0--------|--------------------------------3-|
|---3-3h5p32-2h3p2--------------|----------------------------3-5---|
|-1-------------------2-1----------|------------2-4-4h6p43-4-6-------|
|------------------------------2-4-|-5h7p54-5------------------------|
|----------------------------------|----------------------------------|
|----------------------------------|----------------------------------|
D Em
|-/5-5-5-5/7-5-3/5-----------------------|-------3p0---7p3-0-10p7----12p10----|
|-/7-7-7-7/8-7-5/7-----------------0h2h3-|-5p0-------0------------11-------12|
|--------------------------0h1h2h3-------|-----0------------------------------|
|------------------0h2h3h4---------------|------------------------------------|
|----------------------------------------|------------------------------------|
|----------------------------------------|------------------------------------|
F#
|-2-2h3p2---0h2-0-------------------0-|
|-----------3-------3-2h3p2p0-2-3p2-3---|
|---------------------------------------|
|---------------------------------------|
|---------------------------------------|
|---------------------------------------|

Outro: 

GTR 1
Bm F#
e|------------------------------------|-----------------/6-|
B|-7p3----7p3----7p3----7p3----7p3----|-5p2---5p2---5p2----|
G|------4------4------4------4------4-|-----3-----3--------|

GTR 2
e|-10p7---10p7---10p7---10p7---10p7---|-9p6---9p6---9p6/14-|
B|------7------7------7------7------7-|-----7-----7--------|
G|------------------------------------|--------------------|


GTR 1
A E
e|-------------------------------|-----------------/4-|
B|-5p2---5p2---5p2---5p2---5p2---|-3p0---3p0---3p0----|
G|-----2-----2-----2-----2-----2-|-----1-----1--------|

GTR2
e|-9p5---9p5---9p5---9p5---9p5---|-7p4---7p4---7p4/12-|
B|-----5-----5-----5-----5-----5-|-----5-----5--------|
G|-------------------------------|--------------------|


GTR 1
G D
e|-------------------------------|--------------------|
B|-3p0---3p0---3p0---3p0---3p0---|-3-----3-----3---/7-|
G|-------------------------------|---2-----2-----2----|
D|-----5-----5-----5-----5-----5-|-----4-----4--------|

GTR 2
e|-7p3---7p3---7p3---7p3---7p3---|-5p2---5p2---5-/-10-|
B|-----3-----3-----3-----3-----3-|-----3-----3--------|
G|-------------------------------|--------------------|


GTR 1
Em F# Bm
e|-----------------------------------|-------------------2------------|-2-|
B|-4p0---4p0---4p0---4p0---4p0---3h4-|-2-----3p0---5p2-----3---3p2----|-3-|
G|-----2-----2-----2-----2-----2-----|---3-------------3-----4----3-5-|-4-|
D|-----------------------------------|-----4-----4--------------------|-4-|
|-2-|
GTR 2
e|-3p0---3p0---3p0---3p0---3p0-------|-------2----6----7--------------|-7-|
B|-----0-----0-----0-----0-----0-2h3-|-5-2-----3----7----7-------7-11-|-7-| 
G|-----------------------------------|-----3-----4----9----7-7-9------|-7-|
D|-----------------------------------|--------------------------------|-9-|

Calificar esta versión:
Aviso: Este fichero es trabajo propio de su transcriptor y representa su interpretación personal de la canción. El material contenido en esta página es para exclusivo uso privado, por lo que se prohibe su reproducción o retransmisión, así como su uso para fines comerciales.