Hotel California, Eagles (tablatura) (ver 6)

Autor: angus/young | 34080 visualizaciones

aca les traigo lo ke pude sacar de la famosa hotel california de eagles ojala ke les guste

       ¡BIENVENIDOS AL HOTEL CALIFORNIA!

INICIO:

guitarra 1
e|0--------------------------------/-3--------------------------
B|1--------------0-1-3-5/6-6/5-3/5-/-X--------------------------
G|2--2-2h4-2-1-2-------------------/-4------5-------------------
D|2--------------------------------/-5--5-7---9---5h7-5---------
A|0--------------------------------/------------8-------7/5-3/5-
E|---------------------------------/----------------------------

INICIO 2:

guitarra 1
e|5----------------------------------/-----5-----8-
B|6--------3-------3-------3---------/---6-----6---
G|7------2-----0-2-----4-2-----7---9-/-7-----7-----
D|7--0-3-----2-------5-------9---9---/-------------
A|-----------------------------------/------------- repite esto
E|-----------------------------------/------------- muchas veces

-----5-4-5-7-8-7-8-10-12-2----
---6---------------------2----
-7-----------------------3----
------------------------------
------------------------------
------------------------------

luego viene una parte ke no logre sacar

INTRO:

guitarras:
e|0-0--0-0--3-3--2-2--1-1--0-0--1-1--0-0----
B|1-1--0-0--3-3--3-3--1-1--1-1--3-3--0-0----
G|2-2--1-1--0-0--2-2--2-2--0-0--2-2--1-1----
D|2-2--2-2--0-0--0-0--3-3--2-2--0-0--2-2----
A|0-0--2-2--2-2-------3-3--3-3-------2-2----
E|-----0-0--3-3-------1-1------------0-0---- x2

VERSOS:

guitarra 1:
e|--------0----------------0-/---------3----------------2--
B|----1-------1--------0-----/-----0-------0--------3------
G|--2---2---2---2----1---1---/---0---0---0---0----2---2----
D|---------------------------/------------------0----------
A|0--------------------------/-----------------------------
E|-----------------0---------/-3---------------------------

e|--------1----------------0-/---------1----------------0--
B|----1-------1--------1-----/-----3-------3--------0------
G|--2---2---2---2----0---0---/---2---2---2---2----1---1----
D|---------------------------/-0---------------------------
A|-----------------3---------/-----------------------------
E|1--------------------------/------------------0----------

guitarra 2: La guitarra 2 toca como la intro

CORO:

guitarra 1
Welcome to the hotel california, such a lovely place, such a...
e|-----------------------------------------------------------
B|-----------------------------------------------------------
G|-5-5--5--5-------4---2---0---------------------------------
D|-5-5--7--5-------5---3---2---------------------------------
A|--------------------------------------5-7-8-7-------5-7-8--
E|--------------------------------5-7-8---------5-7-8--------

e|-5-5--5/3--3--3/1--1--1/0---------------------------------
B|-X-X--X/X--X--X/X--X--X/X---------------------------------
G|-5-5--5/4--4--4/2--2--2/1---------------------------------
D|----------------------------------------------------------
A|-------------------------------------5-7-8-7-------5-7-8--
E|-------------------------------5-7-8---------5-7-8--------

guitarra 2
welcome to the hotel california, such a lovely place...
e|-1-1----------------------0-0---0-0-------------------0-0--
B|-1-1----------------------1-1---0-0-------------------1-1--
G|-2-2----------------------0-0---1-1-------------------2-2--
D|-3-3----------------------2-2---2-2-------------------2-2--
A|-3-3----------------------3-3---2-2-------------------0-0--
E|-1-1----------------------------0-0------------------------

welcome to the hotel california, any time of year...
e|-1-1----------------------0-0---2-2-----------------0-0----
B|-1-1----------------------1-1---3-3-----------------0-0----
G|-2-2----------------------0-0---2-2-----------------1-1----
D|-3-3----------------------2-2---0-0-----------------2-2----
A|-3-3----------------------3-3-----------------------2-2----
E|-1-1------------------------------------------------0-0----

guitarra 3
e|--------------------------/-----------------------------
B|--------------------------/-----------------------------
G|--------5-5----9-9--------/--------5-5----7-7----9-9----
D|-3-3----5-5----9-9----7-7-/-3-3----5-5----7-7----9-9----
A|-3-3----3-3----7-7----7-7-/-3-3----3-3----5-5----7-7----
E|-1-1------------------5-5-/-1-1-------------------------


luego de todo esto la "historia" se vuelve a repetir, desde los versos hasta el coro
 osea 2 veces todo y llega el solo ke se los traigo cortesia de fretplay.com

SOLO PRIMERA PARTE:

|-------|---------------------|-7-5-3-2----9-10-|
|-------|---------------------|-----------------|
|-----6-|9--9-9-9-9\7-6-9-7-6-|-7-6-4-3---------|
|-8-9---|---------------------|-----------------|
|-------|---------------------|-----------------|
|-------|---------------------|-----------------|
A                                       E
|-12-12-12-12~~~12-10-9----10-9-------|-------------|
|-----------------------12------12-10-|-9-----------|
|-------------------------------------|---9---------|
|-------------------------------------|-----9-------|
|-------------------------------------|-------9h11--|
|-------------------------------------|------------2|
    G                             D
|--------------------------------|-----------|
|--------------------------------|-----------|
|----------------------------2/4-|2-----4----|
|--------------2----4-2--5-4-----|---12---4--|
|-----0-2--5-4---5---------------|----|------|
|---3----------------------------|----|------| 

SOLO SEGUNDA PARTE:

------------------------|-----------------------------------------------  -----|
------------------------|-----------------------------------------------  -----|
------------------9-11--|11h12p11\9-11----9-11-11h12p11\9-9h11p9\7-7h9p7  \6---|
-9h11p9\8-9-11-12-------|--------------12-------------------------------  ---9-|
------------------------|-----------------------------------------------  -----|
------------------------|-----------------------------------------------  -----|
  F#                          A
|-------------------14-------|------------------------|
|-------12-14-12-11----------|--7-7-7-5-5-5-----------|
|---6-9----------------------|--------------7-7-6-4-2-|
|-8---------------------12\--|7-----------------------|
|----------------------------|------------------------|
|----------------------------|------------------------|
  E                                  G
|-------------------------0--------|--------------------------------3-|
|---3-3h5p3\2-2h3p2\0--------------|----------------------------3-5---|
|-1-------------------2-1----------|------------2-4-4h6p4\3-4-6-------|
|------------------------------2-4-|-5h7p5\4-5------------------------|
|----------------------------------|----------------------------------|
|----------------------------------|----------------------------------|
   D                                       Em
|-/5-5-5-5/7-5-3/5-----------------------|-------3p0---7p3-0-10p7----12p 10----|
|-/7-7-7-7/8-7-5/7-----------------0h2h3-|-5p0-------0------------11---- ---12\|
|--------------------------0h1h2h3-------|-----0------------------------ ------|
|------------------0h2h3h4---------------|------------------------------ ------|
|----------------------------------------|------------------------------ ------|
|----------------------------------------|------------------------------ ------|
  F#
|-2-2h3p2\0---0h2-0-------------------0-|
|-----------3-------3-2h3p2p0-2-3p2-3---|
|---------------------------------------|
|---------------------------------------|
|---------------------------------------|
|---------------------------------------|

Y EL OUTTRO TAMBIEN CORTESIA DE FRETPLAY.COM:

e|------------------------------------|-----------------/6-|
B|-7p3----7p3----7p3----7p3----7p3----|-5p2---5p2---5p2----|
G|------4------4------4------4------4-|-----3-----3--------|

GTR 2
e|-10p7---10p7---10p7---10p7---10p7---|-9p6---9p6---9p6/14-|
B|------7------7------7------7------7-|-----7-----7--------|
G|------------------------------------|--------------------|


GTR 1
   A                               E
e|-------------------------------|-----------------/4-|
B|-5p2---5p2---5p2---5p2---5p2---|-3p0---3p0---3p0----|
G|-----2-----2-----2-----2-----2-|-----1-----1--------|

GTR2
e|-9p5---9p5---9p5---9p5---9p5---|-7p4---7p4---7p4/12-|
B|-----5-----5-----5-----5-----5-|-----5-----5--------|
G|-------------------------------|--------------------|

y aca termino...

"Bienvenidos al hotel California
Un lugar tan encantador, una cara tan encantadora
Ellos son livin' ello en el hotel California
Qué sorpresa tan agradable, traiga sus coartadas"

Comentarios del colaborador: fretplay.com

Calificar esta versión:
Aviso: Este fichero es trabajo propio de su transcriptor y representa su interpretación personal de la canción. El material contenido en esta página es para exclusivo uso privado, por lo que se prohibe su reproducción o retransmisión, así como su uso para fines comerciales.