Hotel California, Eagles (tablatura) (ver 8)

Autor: transkillers | 15050 visualizaciones

Sim7
|-2--|---------|-----|-2-2-3-2-0-2-0-1-| 
|-3--|---------|-2-3-|-----------------|
|-2--|-4-4-3-3-|-----|-----------------|
|-4--|---------|-----|-----------------|
|-2--|---------|-----|-----------------|
|-2--|---------|-----|-----------------|

Lam
|-0--|-----------|-------|-------------| 
|-2--|---0-3-2---|-0---0-|-------------| 
|-2--|-2---------|---2---|-------------| 
|-2--|-----------|-------|-4-2-0-2-0-2-| 
|-0--|-----------|-------|-------------| 
|-0--|-----------|-------|-------------| 

Mim                                     Se repite varias veces
|-0--|-------0-------0-------0-------0-|-----7-----10---------| 
|-0--|-----0-------0-------0-------0---|---8-----8------------|
|-0--|---0-------2-------4-------7-----|-9-----9--------------| 
|-2--|-2-------4-------5-------9-------|----------------------| 
|-2--|---------------------------------|----------------------| 
|-0--|---------------------------------|----------------------| 

                          Fa#
|-7-6-7-9-10-9-10-12-14--|-2--| 
|------------------------|-2--| 
|------------------------|-3--| 
|------------------------|-4--| 
|------------------------|-4--| 
|------------------------|-2--| 
 
Sim7                Fa#7          Lam
|--------------2----|----------2--|-------------0----|
|-3--------5--------|-2--------2--|-2-------3--------|
|---2---2----2---2--|---3---3?-3--|---2---2---2---2--|
|-----4-------------|-----2----2--|-----2------------|
|-2-----------------|----------4--|-0----------------|
|-------------------|-2--------2--|------------------|

Mi7           SolM                 ReM
|-------------|-----------3-----3--|-------2---2--|
|-0--------0--|-------0-----0------|-----3---3----|
|---1---1--1--|-----0---0-----0----|---2----------|
|-----0----0--|---0----------------|-0------------|
|----------2--|-2------------------|--------------|
|-0--------0--|--------------------|--------------|

Mi7                  Fa#
|-----------0--------|-----------2--|
|-------0-----0------|-------2------|
|-----0---0-----0----|-----3---3----|
|---2-------------0--|---4----------|
|-2------------------|-4------------|
|--------------------|--------------| 

Ahora solo toca con los acordes:
Sim7, Fa#7,Lam, Mi7, SolM, ReM, Mim, Fa#
Coro:
 SolM, Rem, Mim, Fa#
Calificar esta versión:
Aviso: Este fichero es trabajo propio de su transcriptor y representa su interpretación personal de la canción. El material contenido en esta página es para exclusivo uso privado, por lo que se prohibe su reproducción o retransmisión, así como su uso para fines comerciales.