Mi Corazon Encantado, Dragon Ball Gt (tablatura) (ver 8)

Autor: Mirmidon | 34545 visualizaciones



e)-3-3-0-1-3-5-3-1-0-0-0---0-1-0---------|
B)------------------3---1-3-----3-1-0----|
G)-----------------------------------2-2-|
D)---------------------------------------|
A)---------------------------------------|
E)---------------------------------------|

e)------3h5-3----------------------|
B)-----------3-3-5-6-5-3-1-5-6p5-3-|
G)-2-2-5---------------------------|
D)---------------------------------|
A)---------------------------------|
E)---------------------------------|

e)-3-3-0-1-3-4-5-1-0-0-0---0-1-0---------|
B)------------------3---1-3-----3-1-0----|
G)-----------------------------------2-2-|
D)---------------------------------------|
A)---------------------------------------|
E)---------------------------------------|

e)--8-8-8-8-8-6-4-6-8-6-|
B)-1--------------------|
G)----------------------|
D)----------------------|
A)----------------------|
E)----------------------|

e)-6-6-6-6-6-4-3-4-6-4-|
B)---------------------|
G)---------------------|
D)---------------------|
A)---------------------|
E)---------------------|

e)-4-4-4-4-3-3----------|
B)----------6-6-6-4-6-8-|
G)----------------------|
D)----------------------|
A)----------------------|
E)----------------------|





Calificar esta versión:
Aviso: Este fichero es trabajo propio de su transcriptor y representa su interpretación personal de la canción. El material contenido en esta página es para exclusivo uso privado, por lo que se prohibe su reproducción o retransmisión, así como su uso para fines comerciales.