Mi Corazòn Encantado, Dragon Ball Gt (tablatura) (ver 5)

Autor: zeus33 | 41649 visualizaciones



e/-3-3-0-1-3-5-3-1-0---0-0-----0-1-0---------------5-3------------/
B/-------------------3-----1-3-------3-1-0-------------3-3-5-6-5-3/
G/-----------------------------------------2-2-5----------------/
D/----------------------------------------------------------------/
A/----------------------------------------------------------------/
E/----------------------------------------------------------------/

e/-------------------/-------------------------------------/
B/1-3-1-0-1---------/--1-1-1-1-1--1---------1---------------------/
G/-----------------/-----------------3--1-3----3----3-3-3-3--3--/
D/----------------/-------------------------------1------/
A/---------------/-------------------------------------/
E/--------------/-------------------------------------/.


e/-----------------------/
B/-----------------------/
G/--1--0--1--3--1---------------------/
D/----------------------------------------------------/
A/----------------------------------------------------/
E/----------------------------------------------------/

e/--------------------------------------/
B/----------------------/
G/--------------------------------/
D/----------------------------------------------------/
A/----------------------------------------------------/
E/----------------------------------------------------/





Letra....


Tu sonrisa tan resplandeciente
a mi corazón deja encantado
ven toma mi mano para huir de esta terrible obscuridad.

En el instante en que te volví a encontrar
mi mente trajo a mí aquel hermoso lugar
que cuando era niño fue tan valioso para mí.
Quiero saber si acaso tú conmigo quieres bailar
si me das tu mano te llevaré
por un camino cubierto de luz y oscuridad.
Tal vez sigues pensando en él
no puedo yo saberlo pero sé y entiendo
que amor necesitas tú
y el valor para pelear en ti lo hayarás.

Mi corazón encantado vibra
por el polvo de esperanza y magia
del universo que ambicionan todos poseer.
Voy amarte para toda la vida
no me importa si aun no te intereso
ven toma mi mano para huir de esta infinita obscuridad.


Luego La Seguire sacando Hasta Luego..!





Calificar esta versión:
Aviso: Este fichero es trabajo propio de su transcriptor y representa su interpretación personal de la canción. El material contenido en esta página es para exclusivo uso privado, por lo que se prohibe su reproducción o retransmisión, así como su uso para fines comerciales.